:: Guitar & Bass Tabs Make Home Page
A B C D E F G H I J K L M N O P Q R S T U V W X Y Z #

  for    

On TABSPACE
Info About This Tab
Artist: Misc Television
Tab Type: Guitar
Rate This Tab!
theme song
***At Least It Was Here by The 88s***


the community
tv show


TRANSCRIBED BY RUDY GUZMAN


guzman_84@hotmail.com


   Give me some more, time in a dream, give me the hope , to run out of steam
e:-0--0-0--0-0--0-0--0-2--2-2--2-2--2-2--2-3--3-3--3-3--3-3--3-2--2-2--2-2--2-2--2-|
B:-2--2-2--2-2--2-2--2-2--2-2--2-2--2-2--2-2--2-2--2-2--2-2--2-2--2-2--2-2--2-2--2-|
G:-2--2-2--2-2--2-2--2-2--2-2--2-2--2-2--2-2--2-2--2-2--2-2--2-2--2-2--2-2--2-2--2-|
D:-2--2-2--2-2--2-2--2-2--2-2--2-2--2-2--2-2--2-2--2-2--2-2--2-2--2-2--2-2--2-2--2-|
A:-0--0-0--0-0--0-0--0-0--0-0--0-0--0-0--0-0--0-0--0-0--0-0--0-0--0-0--0-0--0-0--0-|
E:---------------------------------------------------------------------------------|

   somebody said, we could be here we could be roped up tied up dead in a year
e:-0--0-0--0-0--0-0--0-2--2-2--2-2--2-2--2-3--3-3--3-3--3-3-3-3-3-3-3-3-|
B:-2--2-2--2-2--2-2--2-2--2-2--2-2--2-2--2-2--2-2--2-2--2-2-2-2-2-2-2-2-|
G:-2--2-2--2-2--2-2--2-2--2-2--2-2--2-2--2-2--2-2--2-2--2-2-2-2-2-2-2-2-|
D:-2--2-2--2-2--2-2--2-2--2-2--2-2--2-2--2-2--2-2--2-2--2-2-2-2-2-2-2-2-|
A:-0--0-0--0-0--0-0--0-0--0-0--0-0--0-0--0-0--0-0--0-0--0-0-0-0-0-0-0-0-|
E:----------------------------------------------------------------------|

   And I can't count the reasons I should stay
e:-2--2-2-2-2-2-----------------------------------|
B:-3--3-3-3-3-3--2--2-2-2-2-2-2-2--0--0-0-0-0-0-0-|
G:-2--2-2-2-2-2--2--2-2-2-2-2-2-2--1--1-1-1-1-1-1-|
D:-0--0-0-0-0-0--2--2-2-2-2-2-2-2--2--2-2-2-2-2-2-|
A:---------------0--0-0-0-0-0-0-0--2--2-2-2-2-2-2-|
E:---------------------------------0--0-0-0-0-0-0-|

   one by one they all just stay away
e:-2--2-2-2-2-2-----------------------------------|
B:-3--3-3-3-3-3--2--2-2-2-2-2-2-2--0--0-0-0-0-0-0-|
G:-2--2-2-2-2-2--2--2-2-2-2-2-2-2--1--1-1-1-1-1-1-|
D:-0--0-0-0-0-0--2--2-2-2-2-2-2-2--2--2-2-2-2-2-2-|
A:---------------0--0-0-0-0-0-0-0--2--2-2-2-2-2-2-|
E:---------------------------------0--0-0-0-0-0-0-|

e:-2------------|
B:-3-----2------|
G:-2-----2------|
D:-0-----2------|
A:-------0------|
E:--------------|

hillo son mex

16/07/10


Share "Community Theme" by Misc Television


TOP 10 TABS

FRESH NEW TABS

ALL ARTISTS
artist wiki

mp3bear.com
song lyrics / contact us / privacy policy / tabspace toolbar
Copyright 2004 - 2014 TabSpace.com - All Rights Reserved.
song: community theme guitar tabs by misc television

0.011