:: Guitar & Bass Tabs Make Home Page
A B C D E F G H I J K L M N O P Q R S T U V W X Y Z #

  for    

On TABSPACE
Info About This Tab
Artist: Misc Television
Tab Type: Guitar
Difficulty: novice
Rate This Tab!
This is actually the outro to the song... and it goes like this

e|--------|-------|--------|-------|--------|-------|-------|--------|
B|o-------|-------|--------|-------|--------|-------|-------|-------o|
G|-7-7--7-|-X-X-X-|-7-7--7-|-X-X-X-|-7-7--7-|-X-X-X-|-------|--------|
D|-7-7--7-|-X-X-X-|-7-7--7-|-X-X-X-|-7-7--7-|-X-X-X-|-7-7-7-|-5-5-5--|repeat
A|o5-5--5-|-X-X-X-|-5-5--5-|-X-X-X-|-5-5--5-|-X-X-X-|-7-7-7-|-5-5-5-o|
E|--------|-------|--------|-------|--------|-------|-5-5-5-|-3-3-3--|

e|--------|-------|--------------|-------------|
B|--------|-------|--------------|------or-----|
G|-7-7--7-|-x-x-x-|--------------|-------------|
D|-7-7--7-|-x-x-x-|--------------|-0-0-3-0-3~~-| then play the whole
A|-5-5--5-|-x-x-x-|-0-0-3-0-3~~--|-------------| thing again
E|--------|-------|--------------|-------------|

thats the main riff of the outro of Corner gas 

Hope it helps!!

Tabbed by Bloodhorn


Share "Corner Gas Theme Intro" by Misc Television


TOP 10 TABS

FRESH NEW TABS

ALL ARTISTS
artist wiki

mp3bear.com
song lyrics / contact us / privacy policy / tabspace toolbar
Copyright 2004 - 2014 TabSpace.com - All Rights Reserved.
song: corner gas theme intro guitar tabs by misc television

0.005