:: Guitar & Bass Tabs Make Home Page
A B C D E F G H I J K L M N O P Q R S T U V W X Y Z #

  for    

On TABSPACE
Info About This Tab
Artist: Electric Six
Tab Type: Bass
Rate This Tab!
Countdown to the Countdown
-----------------------------------------------------------------------------

Tabbed By : neilmchamburger

Main Riff

G|------------------------------------|
D|----------------------------------13|
A|-1---------1---------1---------333--|
E|--33333331--33333331--33333331------|

End on

G|-----------|
D|-----------|
A|----3------|
E|-----1-----|


Time elapses, Love collapses, then 
G|-----------------------|
D|-----------------------|
A|----3---------3--------|
E|-3-----1---3----3------|


Can't Stop Listening, Can't Stop Watching

G|------------------|
D|--------1355553555|
A|-1111133----------|
E|------------------|




| /  slide up
| \  slide down
| h  hammer-on
| p  pull-off
| ~  vibrato
| +  harmonic
| x  Mute note



Share "Countdown To The Countdown" by Electric Six


TOP 10 TABS

FRESH NEW TABS

ALL ARTISTS
artist wiki

mp3bear.com
song lyrics / contact us / privacy policy / tabspace toolbar
Copyright 2004 - 2014 TabSpace.com - All Rights Reserved.
song: countdown to the countdown bass tabs by electric six

0.028