:: Guitar & Bass Tabs Make Home Page
A B C D E F G H I J K L M N O P Q R S T U V W X Y Z #

  for    

On TABSPACE
Info About This Tab
Artist: Casual Wish
Tab Type: Guitar
Tuning: Drop D
Rate This Tab!
  INTRO: [FLANGE/DELAY]
E|----------------------------------------|
B|----------------------------------------|
G|-10--/--12------------------------------|
D|----------------------------------------|
A|--8--/--10------------------------------|
D|----------------------------------------|

E|----------------------------------------|
B|----------------------------------------|
G|-10--/-12---------10--/-12--10/-12/14/15|
D|-8-----10--0-X----8-----10--------------|
A|-8-----10--0-X----8-----10---8/-10/12/13|
D|-8--/--10--0-X----8--/--10--------------|

  VERSE:
E|----------------------------------------|
B|----------------------------------------|
G|-10-9------12-10-9----------------------|
D|------12-10----------8--8/10--10/12-----|
A|---------------------8--8/10--10/12-----|
D|---------------------8--8/10--10/12-----|

E|----------------------------------------|
B|---------------------------10-----------|
G|------------------10-------10--------10-|
D|-7/8-X--8/10-X--8-----8/10-----10/12----|
A|-7/8-X--8/10-X--8--8--8/10--8--10/12--8-|
D|-7/8-X--8/10-X--8-----8/10-----10/12----|

E|----------------------------------------|
B|----------------------------------------|
G|---------------10-----------------------|
D|-7/8-X--8/10-X-----10-------------------|
A|-7/8-X--8/10-X--8--10-------------------|
D|-7/8-X--8/10-X-----10-------------------|

E|----------------------------------------|
B|----------------------------------------|
G|--10--14--12--12/14---------------------|
D|---8--12--10--10/12---------------------|
A|---8--12--10--10/12---------------------|
D|---8--12--10--10/12---------------------|

 BRIDGE:
E|----------------------------------------|
B|----------------------------------------|
G|----10-----9-10------10------9-10----10-|
D|----------------------------------------|
A|-8-8---8-8------------------------------|
D|----------------10-10---10-10-----8-8---|

  OUTRO:
E|----------------------------------------|
B|----------------------------------------|
G|----------------------------------------|
D|-8--8-10--10-8--12--10/--7--------------|
A|-8--8-10--10-8--12--10/--7--------------|
D|-8--8-10--10-8--12--10/--7--------------|


Share "Cut Me Open" by Casual Wish


TOP 10 TABS

FRESH NEW TABS

ALL ARTISTS
artist wiki

mp3bear.com
song lyrics / contact us / privacy policy / tabspace toolbar
Copyright 2004 - 2014 TabSpace.com - All Rights Reserved.
song: cut me open guitar tabs by casual wish

0.064