:: Guitar & Bass Tabs Make Home Page
A B C D E F G H I J K L M N O P Q R S T U V W X Y Z #

  for    

On TABSPACE
Info About This Tab
Artist: Ebony Tears
Tab Type: Guitar
Rate This Tab!
Demon ride - Ebony Tears 

  Tuning 2.5 (B E A D F# B) 

pml - light pm; pm - moderated pm; pmh - heavy pm 

Intro x1
|---------------------------------|
|-2-2-2-2-2-2-2-2-2-2-2-2-2-2-2-2-|
|-2-2-2-2-2-2-2-2-2-2-2-2-2-2-2-2-|
|-0-0-0-0-0-0-0-0-0-0-0-0-0-0-0-0-|
pm. . . . . . . . . . . . . . . . 
Riff#1 x8
|-------------------|
|-------------------|
|--2-2-555-333-222--|
|--0-0-333-111-000--|
pm . . ... ... ...
Riff#2a
|--------------------------------------|
|-----------------------------6-6-6-6--|
|-7--5--7--8--7-5-7--5--7--8-----------|
|--00-00-00-00-0-0-00-00-00-00---------|
pm .. .. .. .. . . .. .. .. ..
Riff#2b
|---------------------------------|
|---------------------------------|
|-7--5--7--8--7-5-7--5--7--8-787--|
|--00-00-00-00-0-0-00-00-00--565--|
pm .. .. .. .. . . .. .. ..

Riff#2a

Riff#2c
|-----------------------------------|
|--------------------------3-----6--|
|-7--5--7--8--7-5-7--5--7--3-----6--|
|--00-00-00-00-0-0-00-00-0-1-0-0-4--|
pm .. .. .. .. . . .. .. .   . .

Riff#2a

Riff#2d
|---------------------------------|
|---------------------------------|
|-7--5--7--8--7-5-7--5--7--8------|
|--00-00-00-00-0-0-00-00-00--565--|
pm .. .. .. .. . . .. .. ..
Riff#3 x2
|----------------------------------------------------------|
|----------------------------------------------------------|
|----------------------------------------------------------|
|-222-222-222-222-222-222-222-222-333333333333333333333333-|
pm... ... ... ... ... ... ... ... ........................
Riff#4 x7
|---------------------------|
|---------------------------|
|----2-2-2------2-2-2-------|
|--1-0-0-0-0000-0-0-0-0000--|
pm   . . . .... . . . ....
Riff#5 x1
|-------------|
|-------------|
|----2-2-2-2--|
|--1-0-0-0-0--|
pm   . . . .

Riff#2a
Riff#2d
Riff#2a
Riff#2c

Riff#6 x1
|-----------------------------------------------------------------|
|-----------------------------------------------------------------|
|-----------------------------------------------------------------|
|-222-2-2-222-2-2-222-2-2-222-2-2-666-666-666-666-666-666-666-666-|
pm... . . ... . . ... . . ... . . ... ... ... ... ... ... ... ...
Riff#6 (cont.)
|-----------------------------------------------------------------|
|-----------------------------------------------------------------|
|-----------------------------------------------------------------|
|-222-2-2-222-2-2-222-2-2-222-2-2-888-888-888-888-888-888-888-888-|
pm... . . ... . . ... . . ... . . ... ... ... ... ... ... ... ...
Riff#7a
|-------------------|
|-2-----------------|
|-2---7--5----------|
|-0-00-00--56503530-|
pm  .. ..           
Riff#7b
|-----------------|
|-2---------------|
|-2---7--5--------|
|-0-00-00--565035-|
pm  .. ..     .

Riff#7a
Riff#7b
Riff#7a
Riff#7b
Riff#7a

Riff#8 x1
|------------------------------|
|-2------------5-5-5-5-5-5-5-5-|
|-2---7--5-----5-5-5-5-5-5-5-5-|
|-0-00-00--565-3-3-3-3-3-3-3-3-|
pm  .. ..

Riff#2a
Riff#2d
Riff#2a
Riff#2c
Riff#6 x1

Riff#9 x4
|---------------------------------------------------------|
|--2-------------9-------------7------------10------------| 
|--2-------------7-------------5-------------8------------|
|--0-000-000-000---000-000-000---000-000-000---000-35650--|
pm   ... ... ...   ... ... ...   ... ... ...   ...
Riff#10 x2
|---------------------------------------------------------------------|
|-1818181818181818-2020202020202020-1717171717171717-1515151515151515-|
|---------------------------------------------------------------------|
|-1515151515151515-1717171717171717-1414141414141414-1212121212121212-|
|---------------------------------------------------------------------|
|---------------------------------------------------------------------|

Riff#11 x4
|---------------------------------------------------------|
|---------------------------------------------------------|
|------------------------7^-7^----------------------------| 
|--000-0-000-0-000-0-000-------000-0-000-0-000-0-000-3-3--|
pm ... . ... . ... . ...       ... . ... . ... . ...
Riff#12 x3 (under solo)
|------------------------------------------------|
|------------------------------------------------|
|-00000000000-88888888888-5555555555-66666-77777-|
|------------------------------------------------|
pm........... ........... .......... ..... .....
Riff#13 x1
|------------------------------------------------|
|------------------------------------88888-99999-|
|-00000000000-88888888888-5555555555-66666-77777-|
|------------------------------------------------|
pm........... ........... .......... 
Riff#14a x2
|--------------------|
|--4--3--4--5--4-3---|
|---22-22-22-22-2-2--|
|--------------------|
pm  .. .. .. .. . . 
Riff#14b x2
|--------------------|
|--5--4--5--7--5-4---|
|---33-33-33-33-3-3--|
|--------------------|

Riff#14a x2
Riff#14b x2

Riff#15 x1
|-----------------------------------|
|-----------------------------------|
|-----------------------------------|
|--555-555-555-555-555-555-555-555--|
pm ... ... ... ... ... ... ... ...

Riff#9 x4
Riff#10 x4

Outro x16
|----------|
|----------|
|----------|
|-00000000-|
pm........


Share "Demon Ride" by Ebony Tears


TOP 10 TABS

FRESH NEW TABS

ALL ARTISTS
artist wiki

mp3bear.com
song lyrics / contact us / privacy policy / tabspace toolbar
Copyright 2004 - 2014 TabSpace.com - All Rights Reserved.
song: demon ride guitar tabs by ebony tears

0.011