:: Guitar & Bass Tabs Make Home Page
A B C D E F G H I J K L M N O P Q R S T U V W X Y Z #

  for    

On TABSPACE
Info About This Tab
Artist: Tokio Hotel
Tab Type: Guitar
Rate This Tab!
Intro:
E|----------------- \
H|-----------------  \
G|-----------------   \
D|---4--4-2--------   /2x
A|--4--4-3---------  / 
E|-2--2----3333333- /

Verse 1:
E|----------------- \
H|-----------------  \
G|-----------------   \
D|---4--4-2--------   /4x
A|--4--4-3---------  / 
E|-2--2----3333333- /

Bridge:
E|----------------------------------
H|----------------------------------
G|---------7-77-77---------77-7-777-
D|-9-99-99-7-77-77-9-99-99-77-7-777-
A|-9-99-99-5-55-55-9-99-99-55-5-555-
E|-7-77-77---------7-77-77----------

Chorus:
E|---------------------------------------- \
H|----------------------------------------  \
G|-11-11-11-11-7-7-7-7-14-14-149-9-9-9----   \3x
D|-11-11-11-11-7-7-7-7-14-14-149-9-9-9----   /
A|-9 -9 -9 -9 -5-5-5-5-12-12-127-7-7-7----  /
E|---------------------------------------- /

E|---------------------------------
H|---------------------------------
G|----------77777/9----------77777-
D|-99999999-77777/9-99999999-77777-
A|-99999999-55555/7-99999999-55555-
E|-77777777---------77777777-------

Verse 2:
E|--------------------------------- \
H|---------------------------------  \
G|--------------5-4----------------   \
D|-4-4-4-4-4-4--5-4--5-5-5-5-5-5-5-  / 4x
A|-4-4-4-4-4-4--3-2--5-5-5-5-5-5-5-  /
E|-2-2-2-2-2-2-------3-3-3-3-3-3-3- /

Bridge:
E|----------------------------------
H|----------------------------------
G|---------7-77-77---------77-7-777-
D|-9-99-99-7-77-77-9-99-99-77-7-777-
A|-9-99-99-5-55-55-9-99-99-55-5-555-
E|-7-77-77---------7-77-77----------

Chorus:
E|---------------------------------------- \
H|----------------------------------------  \
G|-11-11-11-11-7-7-7-7-14-14-149-9-9-9----   \3x
D|-11-11-11-11-7-7-7-7-14-14-149-9-9-9----   /
A|-9 -9 -9 -9 -5-5-5-5-12-12-127-7-7-7----  /
E|---------------------------------------- /

E|----------------------------------------
H|----------------------------------------
G|----------77777/9----------777/9\8------
D|-99999999-77777/9-99999999-777/9\8-8\7-7
A|-99999999-55555/7-99999999-555/7\6-8\7-5
E|-77777777---------77777777---------6\5-5



E|----------------------------------- \
H|-----------------------------------  \
G|-11--11-11-7--7-7-14--149-9-9-9----   \4x
D|-11--11-11-7--7-7-14--149-9-9-9----   /
A|-9 --9 -9 -5--5-5-12--127-7-7-7----  /
E|----------------------------------- /


E|---------------------------------------------------------
H|---------------------------------------------------------
G|-11-11-11-1212-14-14-141414-141414-11--11-11-121212-11~9~
D|-11-11-11-1212-14-14-141414-141414-11--11-11-121212-11~9~
A|-9 -9 -9 -1010-12-12-121212-121212-9 --9 -9 -101010-9 ~7~
E|---------------------------------------------------------

Bridge:
E|----------------------------------
H|----------------------------------
G|---------7-77-77---------77-7-777-
D|-9-99-99-7-77-77-9-99-99-77-7-777-
A|-9-99-99-5-55-55-9-99-99-55-5-555-
E|-7-77-77---------7-77-77----------

Chorus:
E|---------------------------------------- \
H|----------------------------------------  \
G|-11-11-11-11-7-7-7-7-14-14-149-9-9-9----   \3x
D|-11-11-11-11-7-7-7-7-14-14-149-9-9-9----   /
A|-9 -9 -9 -9 -5-5-5-5-12-12-127-7-7-7----  /
E|---------------------------------------- /

E|---------------------------------
H|---------------------------------
G|----------77777/9----------77777-
D|-99999999-77777/9-99999999-77777-
A|-99999999-55555/7-99999999-55555-
E|-77777777---------77777777-------



E|---------------------------------------- \
H|----------------------------------------  \
G|-11-11-11-11-7-7-7-7-14-14-149-9-9-9----   \3x
D|-11-11-11-11-7-7-7-7-14-14-149-9-9-9----   /
A|-9 -9 -9 -9 -5-5-5-5-12-12-127-7-7-7----  /
E|---------------------------------------- /

E|-------------------------------------------------------------
H|-------------------------------------------------------------
G|-11-11-11-1212-14-14-141414-141414-11--11-11-121212-11~9~999-
D|-11-11-11-1212-14-14-141414-141414-11--11-11-121212-11~9~999-
A|-9 -9 -9 -1010-12-12-121212-121212-9 --9 -9 -101010-9 ~7~777-
E|-------------------------------------------------------------

E|---------------------------------------------------------
H|---------------------------------------------------------
G|-11-11-11-1212-14-14-141414-141414-11--11-11-121212-11-9-
D|-11-11-11-1212-14-14-141414-141414-11--11-11-121212-11-9-
A|-9 -9 -9 -1010-12-12-121212-121212-9 --9 -9 -101010-9 -7-
E|---------------------------------------------------------

E|-------------------------------------
H|-------------------------------------
G|----------77777/9----------777777777-
D|-99999999-77777/9-99999999-777777777-
A|-99999999-55555/7-99999999-555555555-
E|-77777777---------77777777-----------



--------------------------------
That's it!
It might be a little false... but i hope you enjoy it! :-)


Share "Der Letzte Tag" by Tokio Hotel


TOP 10 TABS

FRESH NEW TABS

ALL ARTISTS
artist wiki

mp3bear.com
song lyrics / contact us / privacy policy / tabspace toolbar
Copyright 2004 - 2014 TabSpace.com - All Rights Reserved.
song: der letzte tag guitar tabs by tokio hotel

0.012