:: Guitar & Bass Tabs Make Home Page
A B C D E F G H I J K L M N O P Q R S T U V W X Y Z #

  for    

On TABSPACE
Info About This Tab
Artist: 36 Crazyfists
Tab Type: Bass
Difficulty: intermediate
Rate This Tab!
36 Crayfists - Destroy the map

. = stop note from ringing

Intro: Guitar for 10 seconds
Verse: x5
F|------------------|------------------|
C|-4444744444447444-|-----4------------|
G|------------------|-5555-55522225222-|
C|------------------|------------------|

Verse end: 
F|------------------|-9--7--------7----|
C|-4444744444447444-|-------9---7---7--|
G|------------------|------------------|
C|------------------|------------------|

Pre-Chorus: 
F|------------------|------------------|------------------|------------------|
C|------------------|------------------|------------------|------------------|
G|------------------|---------4-4h5p42-|------------------|---------4-4h5p42-|
C|-4.---------------|-2-22-200---------|-44466677799911-11|-2-22-200---------|

F|------------------|------------------|------------------|------------------|
C|------------------|------------------|------------------|------------------|
G|------------------|-7-77-7554-4h5p42-|------------------|-7-77-755-4-------|
C|-4446667776669-6--|------------------|-4446667776669-6--|-------------4-5--|

Chorus: 
F|------------------|------------------|------------------|------------------|
C|------------------|------------------|------------------|------------------|
G|------------------|------------------|------------------|------------------|
C|-4~---------------|-0~---------------|-4~---------------|-0.--0~-----------|

Fill: x4
F|------------------|
C|------------------|
G|------------------|
C|-44444-44444-444--|

Repeat everything
Last fill
F|------------------|
C|------------------|
G|------------------|
C|-44444-44444-7-5--|

Bridge: 
F|------------------|------------------|------------------|------------------|
C|------------------|------------------|------------------|------------------|
G|------------------|------------------|------------------|------------------|
C|-4---7---0--00-00-0-4---7---0--00-99-9-4---7---0--00-00-0-4---7---0--99997~|

F|------------------|------------------|------------------|------------------|
C|------------------|------------------|------------------|------------------|
G|------------------|------------------|------------------|------------------|
C|-4---7---0--00-00-0-4---7---0--00-99-9-4---7---0--00-00-0-4---7---0~-------|

Fill 2: 
F|---------|
C|---------|
G|---------|
C|-97--75--|

Chorus:
Rest
End:
F|------------------|------------------|
C|------------------|------------------|
G|------------------|------------------|
C|-44444-44444.-----|-0000000.0000000.-|

F|------------------|------------------|
C|------------------|------------------|
G|------------------|------------------| x2
C|-44444-44444-444--|-00000-00000-000--|

F|------------------|------------------|
C|------------------|------------------|
G|------------------|------------------| x2
C|-4444744444447444-|-0000400000004000-|



Share "Destroy The Map" by 36 Crazyfists


TOP 10 TABS

FRESH NEW TABS

ALL ARTISTS
artist wiki

mp3bear.com
TabSpace.com / contact us / privacy policy / tabspace toolbar
Copyright 2004 - 2016 TabSpace.com - All Rights Reserved.
song: destroy the map bass tabs by 36 crazyfists

0.008