:: Guitar & Bass Tabs Make Home Page
A B C D E F G H I J K L M N O P Q R S T U V W X Y Z #

  for    

On TABSPACE
Info About This Tab
Artist: Misc Television
Tab Type: Guitar
Rate This Tab!
-----------------------------------------------------------------------------
			    Dexter Main Title - Rolfe Kent
-----------------------------------------------------------------------------

Tabbed by: Swamp Fox
Email: swampfox7@gmail.com

Tuning: Standard

Chord changes are written above the tab.

Notes in parentheses are played by a different guitar, but you can just
consider them to be grace notes and play them optionally.

The timing is approximate, play along to the song and it will make sense.

e|-(12-12-12-12-11-8-7)----------------------------|
B|-------------------------------------------------|
G|---------------------------(12-12-12-12-11-10-9)-|
D|-------------------------------------------------|
A|-------------------------------------------------|
E|-------------------------------------------------|

   E                         Am
e|---------------------------------(12-12-12-12-14-15)------------|
B|-----0-0-----0-----------0-1------------------------------------|
G|-----------3------------------------------------------(9-11-12)-|
D|-2--------------------------------------------------------------|
A|----------------------------------------------------------------|
E|----------------------------------------------------------------|

   F                                   G                 B7
e|------------------------------------------------------------|
B|-----1-1---0-1-(13-13-13-13-13)--1-------3-3---2-3-----0----|
G|-------------------------------------0----------------------|
D|-3----------------------------------------------------------|
A|------------------------------------------------------------|
E|------------------------------------------------------------|

   E		           Am
e|-0-----------0-----------------------------------|
B|-----0-0---------0-0-----1------------0h1--------|
G|-----------------------------2-2---2h3------2-2--|
D|-2-----------------------------------------------|
A|-------------------------------------------------|
E|-------------------------------------------------|

   A#m                     E   B     A7    B     B7
e|-------------------------0---------------------2-|
B|-2-----------2---------------4-----2-----4-------|
G|-----3-3---------3-3---------------------4-----2-|
D|-------------------------------------------------|
A|-------------------------------------------------|
E|-------------------------------------------------|

   E
e|-0-------------------3-2-0-------------3-2-----|
B|---3-1-0-------------------3-1-0---------------|
G|---------2-1-0-------------------2-1-0---------|
D|---------------4-2-----------------------------|
A|-----------------------------------------------|
E|-----------------------------------------------|

e|-0---------------------------------------------|
B|---3-1-0-------------------0-1-0-------0-1-0---|
G|---------2-1-0-------0-1-2-------2-1-0-------2-|
D|---------------4-2-4---------------------------|
A|-----------------------------------------------|
E|-----------------------------------------------|

   E                         Am
e|------------------------------------------------------------|
B|-----0-0-----0-----------0-1--------------------------------|
G|-----------3------------------------------------------------|
D|-2----------------------------------------------------------|
A|------------------------------------------------------------|
E|------------------------------------------------------------|

   F                                   G                 B7
e|-------------------------------------------------------2----|
B|-----1-1---0-1--------------1----1-------3-3---2-3-----0----|
G|-----------------------------------2-0----------------------|
D|-3----------------------------------------------------------|
A|------------------------------------------------------------|
E|------------------------------------------------------------|

   E		           Am
e|-------------0-------------------------------------|
B|-----0-0---------0-0-----1------------0h1----------|
G|-----------------------------2-2---2h3------2-2----|
D|-2-------------------------------------------------|
A|---------------------------------------------------|
E|---------------------------------------------------|

   A#m                     E   B     A7    B     B7
e|-------------------------0---------------------2---|
B|-2-----------2---------------4-----2-----4---------|
G|-----3-3---------3-3-------------------------------|
D|---------------------------------------------------|
A|---------------------------------------------------|
E|---------------------------------------------------|

   E
e|-0---------------0-------0---------------0-------|
B|---3-1-0-------------------3-1-0-----------------|
G|---------2-1-0-------------------2-1-0-----------|
D|---------------4-2---------------------4-2-------|
A|-------------------------------------------------|
E|-------------------------------------------------|

e|-0---------------0-------------------------------|
B|---3-1-0-------------------0-1-0-------0-1-0-----|
G|---------2-1-0-------0-1-2-------2-1-0-------2---|
D|---------------4-2-4---------------------------2-|
A|-------------------------------------------------|
E|-------------------------------------------------|


Share "Dexter Main Title" by Misc Television


TOP 10 TABS

FRESH NEW TABS

ALL ARTISTS
artist wiki

mp3bear.com
song lyrics / contact us / privacy policy / tabspace toolbar
Copyright 2004 - 2014 TabSpace.com - All Rights Reserved.
song: dexter main title guitar tabs by misc television

0.009