:: Guitar & Bass Tabs Make Home Page
A B C D E F G H I J K L M N O P Q R S T U V W X Y Z #

  for    

On TABSPACE
Info About This Tab
Artist: Misc Television
Tab Type: Guitar
Difficulty: intermediate
Rate This Tab!
Based on the original tab by swampfox7 (at gmail).
Edited by DMoriarty
Email: Branchmg at appstate.edu

Tuning: Standard

The timing is approximate--The theme is all over youtube if you need reference.
Notes in parenthesis are optional/second guitar.
Chord changes are written above the tab for your convenience.

  ~Legend~
 pm - Palm mute
 .  - Staccato
 *  - natural Harmonic


[intro]

e|-------------------------------------------------|
B|-------------------------------------------------|
G|--9-9-9-9h8--------------------------------------|
D|------------10h9---------------------------------|
A|--------------------------10-10-10-10-9-8-7------|
E|-------------------------------------------------|
                 .        

e|-------------------------|
B|-------------------------|
G|-------------------------|
D|-------------------------|
A|------7---6---2----------|
E|----0--------------------|


[A section]
   E                         Am
e|---0-0--0-0-0----------------0-----(12-12-12-12-14-15)------------|
B|---0-0--0-0-0--------------0-1------------------------------------|
G|---4-4--4-3-4----------------2--------------------------(9-11-12)-|
D|---2-2--2-2-2----------------2------------------------------------|
A|---2-2--2-2-2----------------0------------------------------------|
E|-0-0-0--0-0-0----------------0------------------------------------|

   F                                   G                 B7
e|----1-1---0-1---------------------------3-3---3-3------2----|
B|----1-1---0-1-(13-13-13-13-13)--1-------3-3---2-3------0----|
G|----2-2---2-2---------------------------0-0---0-0------2----|
D|----3-3---3-3---------------------------0-0---0-0------1----|
A|----3-3---3-3---------------------------2-2---2-2------2----|
E|-1--1-1---1-1------------------------3--3-3---3-3-----------|

   E		           Am
e|-0-----0------0----0-----------0--------------0------|
B|-----0-0---------0-0-----1-----1-------0h1----1------|
G|-------0-----------0---------2-2---2h3------2-2------|
D|-------2-----------2---------2-2------------2-2------|
A|-----2-2---------2-2-----0-----0---------0----0------|
E|-0-----0------0----0-----------0---------------------|

   F#                     E    B    A    F#   B7
e|-------2-----------2----0-------------------2-----|
B|-2-----2------2----2------2--4----2--------(0)----|
G|-----3-3---------3-3---------4----2----4----2-----|
D|-------4-----------4-------------------4---(0)----|
A|-----4-4---------4-4---------2----0---------2-----|
E|-2-----2------2----2-------------------2----------|
                               .    .    .

[B section]

   E
e|--0-----------------------0---------------------|
B|----3-1-0-------------------3-1-0---------------|
G|----------2-0---------------------2-0-----------|
D|--------------4-3-2--2----------------4-3-2--2--|
A|------------------------------------------------|
E|-0-----------------------0----------------------|

e|--0-------------------------------------------------|
B|----3-1-0-------------------------------------------|
G|----------2-0------------------2-----------2-4-5----|
D|--------------4-3-2--2---2-4-5---5-4-2-4-5----------|
A|----------------------------------------------------|
E|-0--------------------------------------------------|


[A section]

   E                         Am
e|---0-0--0-0-0----------------0-----(12-12-12-12-14-15)------------|
B|---0-0--0-0-0--------------0-1------------------------------------|
G|---4-4--4-3-4----------------2--------------------------(9-11-12)-|
D|---2-2--2-2-2----------------2------------------------------------|
A|---2-2--2-2-2----------------0------------------------------------|
E|-0-0-0--0-0-0----------------0------------------------------------|

   F                                   G                 B7
e|----1-1---0-1---------------------------3-3---3-3------2----|
B|----1-1---0-1-(13-13-13-13-13)--1-------3-3---2-3------0----|
G|----2-2---2-2---------------------------0-0---0-0------2----|
D|----3-3---3-3---------------------------0-0---0-0------1----|
A|----3-3---3-3---------------------------2-2---2-2------2----|
E|-1--1-1---1-1------------------------3--3-3---3-3-----------|

   E		           Am
e|-0-----0------0----0-----------0--------------0------|
B|-----0-0---------0-0-----1-----1-------0h1----1------|
G|-------0-----------0---------2-2---2h3------2-2------|
D|-------2-----------2---------2-2------------2-2------|
A|-----2-2---------2-2-----0-----0---------0----0------|
E|-0-----0------0----0-----------0---------------------|

   F#                     E    B    A    F#   B7
e|-------2-----------2----0-------------------2-----|
B|-2-----2------2----2------2--4----2--------(0)----|
G|-----3-3---------3-3---------4----2----4----2-----|
D|-------4-----------4-------------------4---(0)----|
A|-----4-4---------4-4---------2----0---------2-----|
E|-2-----2------2----2-------------------2----------|


[B section]

   E
e|--0-----------------------0---------------------|
B|----3-1-0-------------------3-1-0---------------|
G|----------2-0---------------------2-0-----------|
D|--------------4-3-2--2----------------4-3-2--2--|
A|------------------------------------------------|
E|-0-----------------------0----------------------|

e|--0-------------------------------------------------|
B|----3-1-0-------------------------------------------|
G|----------2-0------------------2-----------2-4-5----|
D|--------------4-3-2--2---2-4-5---5-4-2-4-5----------|
A|----------------------------------------------------|
E|-0--------------------------------------------------|


[outro]

e|-------------------5*-------------------------------|
B|---12*---12*----------------------------------------|
G|---12*---12*----------------------------------------|
D|----------------------------------------------------|
A|----------------------------------------------------|
E|-0-----0-----0--------------------------------------|
   pm.........




Share "Dexter Theme" by Misc Television


TOP 10 TABS

FRESH NEW TABS

ALL ARTISTS
artist wiki

mp3bear.com
song lyrics / contact us / privacy policy / tabspace toolbar
Copyright 2004 - 2014 TabSpace.com - All Rights Reserved.
song: dexter theme guitar tabs by misc television

0.019