:: Guitar & Bass Tabs Make Home Page
A B C D E F G H I J K L M N O P Q R S T U V W X Y Z #

  for    

On TABSPACE
Info About This Tab
Artist: 36 Crazyfists
Tab Type: Bass
Rate This Tab!
36 Crazyfists - Dislocate
From the album Bitterness The Star

Intro/Chorus x1
F|-----------------------------------------------------------------------------|
C|-----------------------------------------------------------------------------|
G|-----------------------------------------------------------------------------|
C|-0-0-0--1-1-1--4-----3-3-3--4-4-4--1-------0-0-0--1-1-1--4-----3-3-3--4-1~---|

F|--------------------------------------------------------------------------------|
C|--------------------------------------------------------------------------------|
G|--------------------------------------------------------------------------------|
C|-0-0-0--1-1-1--4-----3-3-3--4-4-4--1-------0-0-0--1-1-1--4-----3-3-3--4-1~0~----|

Verse 1 x2
F|-------------------------------------------------------------------|
C|-------------------------------------------------------------------|
G|--7-7-7-8-8-8-11-11--10-10-10-11-11-11-8-8--7-7-7-8-8-8-11-11---8~-|
C|-------------------------------------------------------------------|

Verse 2 x2
F|--------------------------------------------------------------------------|
C|--------------------------------------------------------------------------|
G|--------------------------------------------------------------------------|
C|-0-0-0-1-1-1-4-4-----3-3-3-4-4-4-1-1-------0-0-0-1-1-1-4-4-----3-3-3-4-1--|

Chorus x1

Verse 1 x2

Verse 2 x2

Chorus x1

Bridge 1 x4
F|---------------------------|
C|---------------------------|
G|-555---------------88--44--|
C|-----333--777--888---------|

Bridge 2 x4
F|----------------------------------------------------------------------|
C|----------------------------------------------------------------------|
G|----------------------------------------------------------------------|
C|-7-7-7-7-7-7-7-7--8-8-8-8-8-8-8-8--7-7-7-7-7-7-7-7--3-3-3-3-3-3-3-3---|

Chorus

Breakdown 1 x4

Breakdown 2 x4

Chorus x1


Share "Dislocate" by 36 Crazyfists


TOP 10 TABS

FRESH NEW TABS

ALL ARTISTS
artist wiki

mp3bear.com
TabSpace.com / contact us / privacy policy / tabspace toolbar
Copyright 2004 - 2016 TabSpace.com - All Rights Reserved.
song: dislocate bass tabs by 36 crazyfists

0.002