:: Guitar & Bass Tabs Make Home Page
A B C D E F G H I J K L M N O P Q R S T U V W X Y Z #

  for    

On TABSPACE
Info About This Tab
Artist: Panic At The Disco
Tab Type: Bass
Rate This Tab!
-------------------------------------------------------------------------------
		Do You Know What I'm Seeing - Panic At The Disco
-------------------------------------------------------------------------------

Tabbed By: Valerie L
e-mail: iloled@yahoo.com
Tuning: standard

verse "Clouds are marching along, singing a song..."
G|-------------------------------------------------3~-------------|
D|-1~---------1~-------------------1~----1~-3~-4~-----------------|
A|----------------------------------------------------------------|
E|-------------------4~---4~---4~---------------------4~--4-4-4-4-|

chorus "I know it's sad, but I never gave a damn about the weather."
G|-------------------------------------------------------------------|
D|----------------1-1-3-4-------------------------1-1-3-4---------1~-|
A|--------------1---------2-2-2-2---------------1--------------------|
E|2-2-2-2-2-2-4-------------------2-2-2-2-2-2-4-----------4-4-4-4----|

bridge "never gave a damn...I know it's mad..."
G|----------------------------------|
D|----------------------------------|
A|---------------------------5---5--|
E|4-4-3-33-2-2-1-11-0-0-0-0----4---4| x2

"i know it's mad but if i go to hell..."
G|-----------------------7-----7------|     |--------|
D|-6-6-5-55-4-4-3-33-2~----6~----6~---|     |-1~-----|
A|------------------------------------|     |--------|
E|------------------------------------|  x2 |--------|

verse "Clouds are  singing a song..."
G|-------------------------------------------------3-4------------|
D|-1~---------1~-------------------1~----1~-3~-4~-----------------|
A|----------------------------------------------------------------|
E|-------------------4~---4~---4~---------------------4~--4-4-4-4-|

chorus x1

bridge "never gave a damn...I know it's mad..."
G|----------------------------------|
D|----------------------------------|
A|---------------------------5---5--|
E|4-4-3-33-2-2-1-11-0-0-0-0----4---4| x2

"i know it's mad but if i go to hell..."
G|-----------------------7-----7------|     |---------|
D|-6-6-5-55-4-4-3-33-2~----6~----6~---|     |---------|
A|------------------------------------|     |---------|
E|------------------------------------|  x2 |0-0-0-0--|


outro chorus
G|-------------------------------------------------------------------|
D|----------------1-1-3-4-------------------------1-1-3-4---------1~-|
A|--------------1---------2-2-2-2---------------1--------------------|
E|2-2-2-2-2-2-4-------------------2-2-2-2-2-2-4-----------4-4-4-4----| x3

G|--------|
D|-2~-----|
A|--------|
E|--------|



Share "Do You Know What Im Seeing" by Panic At The Disco


TOP 10 TABS

FRESH NEW TABS

ALL ARTISTS
artist wiki

mp3bear.com
song lyrics / contact us / privacy policy / tabspace toolbar
Copyright 2004 - 2014 TabSpace.com - All Rights Reserved.
song: do you know what im seeing bass tabs by panic at the disco

0.019