:: Guitar & Bass Tabs Make Home Page
A B C D E F G H I J K L M N O P Q R S T U V W X Y Z #

  for    

On TABSPACE
Info About This Tab
Artist: Misc Television
Tab Type: Guitar
Difficulty: novice
Rate This Tab!
Doctor Who Theme

Play with flange, echo, phaser or any daft effects sound good

Main Bit

   D5				F5
e --------------------------------------------|
B --------------------------------------------|
G -7-7--7-7--7-7--7-7--7-7--7-7--10-10-10-----|
D -7-7--7-7--7-7--7-7--7-7--7-7--10-10-10-----|
A -5-5--5-5--5-5--5-5--5-5--5-5--8--8--8------|
E --------------------------------------------|

or alternately play with open chords

Synth Part

e -----------------------------------------------|
B ------------13----------------------13---------|
G ----15-14~------15-14~------15-14~-----15-14~--|
D -12----------------------12--------------------|
A -----------------------------------------------|
E -----------------------------------------------|

e ---------------------|
B ---------------------|
G -15-------14-15-14~--|
D ----15-12------------|
A ---------------------|
E ---------------------|

We had fun by playing this as an intro to some of our gigs.



Share "Doctor Who Theme" by Misc Television


TOP 10 TABS

FRESH NEW TABS

ALL ARTISTS
artist wiki

mp3bear.com
song lyrics / contact us / privacy policy / tabspace toolbar
Copyright 2004 - 2014 TabSpace.com - All Rights Reserved.
song: doctor who theme guitar tabs by misc television

0.002