:: Guitar & Bass Tabs Make Home Page
A B C D E F G H I J K L M N O P Q R S T U V W X Y Z #

  for    

On TABSPACE
Info About This Tab
Artist: Tokio Hotel
Tab Type: Guitar
Difficulty: novice
Rate This Tab!
-------------------------------------------------------------------------
		     Don't Jump - Tokio Hotel
-------------------------------------------------------------------------
Tabbed by: Karleen Heong
Email: the_aurora_australis@hotmail.com

Tuning: Standard down 1 1/2 steps
        (6=C#,5=F#,4=B,3=E,2=G#,1=C#)

This song is great and so sad. I've arranged it for one guitar so it 
does not sound exactly like the recording (but it's how I play it).
Don't be disencouraged by the tuning as I've found the other versions
in standard play some notes an octave higher and not the way the band 
plays it, also a lower tuning creates that darkish atmosphere. The 
German version is Spring Nicht.
Here it is:

Intro:
C#|---------------------------0--0000--0--0000--0--0000--0-0-0000-|
G#|---------------------------1--1111--1--1111--1--1111--1/3-3333-|
E |---------------------------0--0000--0--0000--0--0000--0-0-0000-| x2
B |---9------7-----5-----4----2--2222--2--2222--2--2222--2/4-4444-|
F#|-----10-----9-----7-----5--3--3333--3--3333--3--3333--3/5-5555-|
C#|-0------0-----0-----0------0--0000--0--0000--0--0000--0-0-0000-|

Verse:
C#|---------------------------0--0000--0--0000--0--0000--0-0-0000-|
G#|---------------------------1--1111--1--1111--1--1111--1/3-3333-|
E |---------------------------0--0000--0--0000--0--0000--0-0-0000-| x3
B |---9------7-----5-----4----2--2222--2--2222--2--2222--2/4-4444-|
F#|-----10-----9-----7-----5--3--3333--3--3333--3--3333--3/5-5555-|
C#|-0------0-----0-----0------0--0000--0--0000--0--0000--0-0-0000-|

C#|-------------------------------------------------|
G#|-------------------------------------------------|
E |---------------------------5--5555--5--5555--5---| 
B |---9------7-----5-----4----7--7777--7--7777--7---|
F#|-----10-----9-----7-----5--7--7777--7--7777--7---|
C#|-0------0-----0-----0------5--5555--5--5555--5---|

Chorus: with distortion
C#|-----------------|
G#|-----------------|
E |-----------------|
B |---------x-7--9--|
F#|---------x-7--9--|
C#|---------x-5--7--|
   I scream into the...

C#|--------------------------------------------------------|
G#|--------------------------------------------------------|
E |-5-5555--5-5555--7-7777--7-7777-------------------------|
B |-5-5555--5-5555--7-7777--7-7777--2-2222--2-2222-2-2222--|
F#|-3-3333--3-3333--5-5555--5-5555--2-2222--2-2222-2-2222--|
C#|---------------------------------0-0000--0-0000-0-0000--|
    night...                                       ...the
    guide...                                     ...don't

C#|-------------------|
G#|---8------7----3---|
E |---9------7----4---|
B |---9------7----4---| Repeat these 3 chords and the line just
F#|---7------5----2---| above TWICE
C#|---0------0----0---|
   ...lights will not...
   ...let....memo-ries...
                                                        (clean)
C#|-----------------------------------------------------------|
G#|----------------------------------------------5---------7--|
E |-5-5555--5-5555--7-7777--7-7777---------------5-(long---7--|
B |-5-5555--5-5555--7-7777--7-7777--7-7-7-7-7-7--5--hold)--7--|
F#|-3-3333--3-3333--5-5555--5-5555--7-7-7-7-7-7--3---------5--|
C#|---------------------------------5-5-5-5-5-5---------------|
    go...                                        view...  ...please

Break:
C#|---------------------------0--0000--0--0000--0--0000--0-0-0000-|
G#|---------------------------1--1111--1--1111--1--1111--1/3-3333-|
E |---------------------------0--0000--0--0000--0--0000--0-0-0000-| 
B |---9------7-----5-----4----2--2222--2--2222--2--2222--2/4-4444-|
F#|-----10-----9-----7-----5--3--3333--3--3333--3--3333--3/5-5555-|
C#|-0------0-----0-----0------0--0000--0--0000--0--0000--0-0-0000-|
   

*Repeat verse as above


Chorus: with distortion
C#|-----------------|
G#|-----------------|
E |-----------------|
B |---------x-7--9--|
F#|---------x-7--9--|
C#|---------x-5--7--|
   I scream into the...

C#|--------------------------------------------------------|
G#|--------------------------------------------------------|
E |-5-5555--5-5555--7-7777--7-7777-------------------------|
B |-5-5555--5-5555--7-7777--7-7777--2-2222--2-2222-2-2222--|
F#|-3-3333--3-3333--5-5555--5-5555--2-2222--2-2222-2-2222--|
C#|---------------------------------0-0000--0-0000-0-0000--|
    night...                                       ...the
    guide...                                     ...don't

C#|-------------------|
G#|---8------7----3---|
E |---9------7----4---|
B |---9------7----4---| Repeat these 3 chords and the line just
F#|---7------5----2---| above TWICE
C#|---0------0----0---|
   ...lights will not...
   ...let....memo-ries...

C#|----------------------------------------------|
G#|----------------------------------------------|
E |-5-5555--5-5555--7-7777--7-7777---------------|
B |-5-5555--5-5555--7-7777--7-7777--7-7-7-7-7-7--|
F#|-3-3333--3-3333--5-5555--5-5555--7-7-7-7-7-7--|
C#|---------------------------------5-5-5-5-5-5--|
    go...                                  

C#|-------------------------------------------------|
G#|-------------------------------------------------|
E |-5-5555--5-5555--5-5555--5-5555--7-7777--7-7777--|
B |-5-5555--5-5555--5-5555--5-5555--7-7777--7-7777--|
F#|-3-3333--3-3333--3-3333--3-3333--5-5555--5-5555--|
C#|-------------------------------------------------|

Bridge:
C#|----------------7-7-----------------------|
G#|-8888--10101010-8-8--5-5555--5-5555--7-7--|
E |-9999--9-9-9-9--9-9--5-5555--5-5555--7-7--|
B |-9999--9-9-9-9--9-9--5-5555--5-5555--7-7--| x4
F#|-7777--7-7-7-7--7-7--3-3333--3-3333--5-5--|
C#|------------------------------------------|

                                 (clean)
C#|----------------7-7--------------0----------0---|
G#|-8888--10101010-8-8----------------1---3-0--1---|
E |-9999--9-9-9-9--9-9--5-(hold)---------------0---|
B |-9999--9-9-9-9--9-9--7---------2-----2------2---|
F#|-7777--7-7-7-7--7-7--7----------------------0---|
C#|---------------------5--------------------------|
 
                                (distorted)
C#|-----------0-----------0---------------------------------|
G#|-------3-----3-----------3-------------------------------|
E |---------0-----0---0-------0-----------------------------|
B |---------------------4--------7-7-7-7-7-7-xx--x--7-7--9--|
F#|-0-2-3-----------5------------7-7-7-7-7-7-xx--x--7-7--9--|
C#|------------------------------5-5-5-5-5-5-xx--x--5-5--7--|
PM                               . . . . . . 

Chorus: with distortion
C#|--------------------------------------------------------|
G#|--------------------------------------------------------|
E |-5-5555--5-5555--7-7777--7-7777-------------------------|
B |-5-5555--5-5555--7-7777--7-7777--2-2222--2-2222-2-2222--|
F#|-3-3333--3-3333--5-5555--5-5555--2-2222--2-2222-2-2222--|
C#|---------------------------------0-0000--0-0000-0-0000--|
    night...                                       ...the
    guide...                                     ...don't

C#|-------------------|
G#|---8------7----3---|
E |---9------7----4---|
B |---9------7----4---| Repeat these 3 chords and the line just
F#|---7------5----2---| above TWICE
C#|---0------0----0---|
   ...lights will not...
   ...let....memo-ries...

C#|----------------------------------------------|
G#|----------------------------------------------|
E |-5-5555--5-5555--7-7777--7-7777---------------|
B |-5-5555--5-5555--7-7777--7-7777--7-7-7-7-7-7--|
F#|-3-3333--3-3333--5-5555--5-5555--7-7-7-7-7-7--|
C#|---------------------------------5-5-5-5-5-5--|
    go...                                  

C#|-------------------------------------------------|
G#|-------------------------------------------------|
E |-5-5555--5-5555--5-5555--5-5555--7-7777--7-7777--|
B |-5-5555--5-5555--5-5555--5-5555--7-7777--7-7777--|
F#|-3-3333--3-3333--3-3333--3-3333--5-5555--5-5555--|
C#|-------------------------------------------------|

C#|--------------------------------------------------7--|
G#|--------------5------------7----------------------8--|
E |--------------5-(long------7-(hold)---------------9--|
B |-7-7-7-7-7-7--5--hold)-----7----------9------7----9--|
F#|-7-7-7-7-7-7--3------------5------------10-----9--7--|
C#|-5-5-5-5-5-5------------------------0------0------0--|
                      ...then I'll...           

Finished! The last line of lyrics is great. The album 
comes out this month in the US so hopefully someone will 
discover this tab soon. If anyone wants me to tab out the 
full version as it is played on the album with 2 guitars, 
let me know. Comments appreciated!

| /  slide up
| .  PM (palm mute)
| x  Mute note
===================================================================


Share "Dont Jump" by Tokio Hotel


TOP 10 TABS

FRESH NEW TABS

ALL ARTISTS
artist wiki

mp3bear.com
song lyrics / contact us / privacy policy / tabspace toolbar
Copyright 2004 - 2014 TabSpace.com - All Rights Reserved.
song: dont jump guitar tabs by tokio hotel

0.014