:: Guitar & Bass Tabs Make Home Page
A B C D E F G H I J K L M N O P Q R S T U V W X Y Z #

  for    

On TABSPACE
Info About This Tab
Artist: Basshunter
Tab Type: Guitar
Difficulty: novice
Rate This Tab!
This is my first tab, this is the main melody that rings through most people's ears as 
hear the song. The other 2 versions are doing a secondary part to the song. I thought you 
would like it if I showed the main melody. Standard tuning BTW.
Enjoy!

E|-0-0-3-0-3-5-0|0-0-0-3-0-3-5-1|3-0-3-0-0-3-3-|3-0-3-0-3-3-|
B|--------------|---------------|-------------1|-----------0|
G|--------------|---------------|--------------|------------|
D|--------------|---------------|--------------|------------|
A|--------------|---------------|--------------|------------|
E|--------------|---------------|--------------|------------|
Repeat twice, wait for small break and repeat once more


Near end of song:

E|--------------|---------------|--------------|------------|
B|--------------|---------------|--------------|------------|
G|-----2-2-2----|2-2-2-2-2-2-4-4|4-5-5-5-5-5-5-|5-5-5-7-7-7-|
D|--------------|---------------|--------------|------------|
A|--------------|---------------|--------------|------------|
E|--------------|---------------|--------------|------------|

E|--------------|---------------|--------------|------------|
B|--------------|---------------|--------------|------------|
G|5-5-5-5-5-5-5-|5-5-12-12-12-7-|7-7-7-7-7-7-7-|4-4-4-2-2-2-|
D|--------------|---------------|--------------|------------|
A|--------------|---------------|--------------|------------|
E|--------------|---------------|--------------|------------|

Then repeat same section 3x.


Share "Dota Intro" by Basshunter


TOP 10 TABS

FRESH NEW TABS

ALL ARTISTS
artist wiki

mp3bear.com
song lyrics / contact us / privacy policy / tabspace toolbar
Copyright 2004 - 2014 TabSpace.com - All Rights Reserved.
song: dota intro guitar tabs by basshunter

0.012