:: Guitar & Bass Tabs Make Home Page
A B C D E F G H I J K L M N O P Q R S T U V W X Y Z #

  for    

On TABSPACE
Info About This Tab
Artist: Misc Television
Tab Type: Guitar
Difficulty: novice
Rate This Tab!
Músicas do Doug Funnie
Doug's Funnie Songs

Esta 1° tab é aquela famosa que toca durante a troca de cenas
(This 1° tab is that famous, used to change the scenes)


Escute a música pra fazer uma boa batida
(Listen the music to make a good beat)


|                                   |r
| e|-7--8--7--5--7----7--8--7--5--3 |e
| B|-8--8--8--5--8----8--8--8--5--3 |p
| G|------------------------------- |e
| D|------------------------------- |a
| A|------------------------------- |t
| E|------------------------------- |

A Música do Prefeito
(The Mayor Song)

Algo assim (Something like this)


|
| e|-0-0-2-4-5--5--5--4-2-0-----0-0-2-4-5--5--7-2-4-|
| B|------------------------3-2---------------------|
| G|------------------------------------------------|
| D|------------------------------------------------|
| A|------------------------------------------------|
| E|------------------------------------------------|

      						    |
    -0-0-2-4-5--5--5--4-2-0-----2-0---4-2-0--4-5--- |
    ------------------------3-2-----3-------------- |
    ----------------------------------------------- |
    ----------------------------------------------- |
    ----------------------------------------------- |
    ----------------------------------------------- |

Música tocada em situações engraçadas e na biblioteca
(Music played in funny situations and in library)

Algo assim também ^^" (Something like this too)


|
| e|----------------5----------5----------------------|
| B|-3-5-6-7--7-5-7---5--7-5-7---5--3-3-0-3-0-3/5-5-3-|
| G|--------------------------------------------------|
| D|--------------------------------------------------|
| A|--------------------------------------------------|
| E|--------------------------------------------------|


    --------------5-----------5--------5/7--7-7-6--7-6-|
    -5-6-7--7-5-7---5--7-5-7----5--5/3-----------------|
    ---------------------------------------------------|
    ---------------------------------------------------|
    ---------------------------------------------------|
    ---------------------------------------------------|


    -7-7---7-6-7-7---7-8-5------------6/7-------------|
    -----7---------7-------8-8-8/10-8------5-6-6-7-5--|
    --------------------------------------------------|
    --------------------------------------------------|
    --------------------------------------------------|
    --------------------------------------------------|

      						       |
    ---5----------5---5/7----------------------------- |
    -7---5--7-5-7---5-----8--------------------------- |
    -------------------------------------------------- |
    -------------------------------------------------- |
    -------------------------------------------------- |
    -------------------------------------------------- |


-----------------------------------
Tab por AloneRocker                |
qualquer correção é bem-vinda ^^   |
e-mail: metalandrock_7@hotmail.com |


Share "Doug - Funnie Songs Solo" by Misc Television


TOP 10 TABS

FRESH NEW TABS

ALL ARTISTS
artist wiki

mp3bear.com
song lyrics / contact us / privacy policy / tabspace toolbar
Copyright © 2004 - 2014 TabSpace.com - All Rights Reserved.
song: doug - funnie songs solo guitar tabs by misc television

0.011