:: Guitar & Bass Tabs Make Home Page
A B C D E F G H I J K L M N O P Q R S T U V W X Y Z #

  for    

On TABSPACE
Info About This Tab
Artist: Tesla
Tab Type: Bass
Rate This Tab!
Paul Hutchinson (u9343164@athmail1.causeway.qub.ac.uk)

    Down Fo' Boogie by Tesla
    ------------------------


* = Repeat section between double asterisks
*

Shuffle Feel

+--------2-+---1-4-1-+-2-------+-2-------+---------+
|*---2-5---|-2-------|---5-4-5-|---5-4-2-|---------|
|*-3-------|---------|---------|---------|-5-3-2---|
+----------+---------+---------+---------+-------5-+

                    1,3,5th ---\/2,4,6,7th-\/8th time
+---------+-------2-+-5-2------++-5--------++-5-2-----+
|-------2-|---2-5---|-----5-2-*||---------*||-----5-2-|
|---2-5---|-3-------|---------*||-------2-*||---------|
+-3-------+---------+----------++---3-5----++---------+
            
            --3-- --3-- --3-- --3--
+-------2-+-------------------------+-2-------+
|---2-5---|-2-2-2-2-2-2-2-2-2-2-2-2-|---5-4-5-|
|-3-------|-------------------------|---------|
+---------+-------------------------+---------+

  --3-- --3-- --3-- --3--
+-2-2-2-2-2-2-2-2-2-2-2-2-+----------+---------+-------2-+
|-------------------------|*---------|-------2-|---2-5---|
|-------------------------|*-5-3-2---|---2-5---|-3-------|
+-------------------------+--------5-+-3-------+---------+

+-2-2--------------+---------+---------+
|-----5---4---2---*|---------|---------|
|-----------------*|-5-3-2---|---------|
+------------------+-------5-+-3-3-----+

  --3-- --3-- --3-- --3--        pause
+-------------------------+----------
|-------------------------|----------
|-3-3-3-1-1-1-0-0-0-------|-----4-3--
+-------------------4-4-4-+-3--------

Coda:
                                       1st+2nd times------\
+----------+-----------------+---------+------------------+
|*---------|-----------------|---------|-----------------*|
|*-3---3---|-5---5-5---------|---5---5-|-3---3-3---------*|
+----3---3-+-----------------+-3---3---+------------------+

3rd time--
+---------+
|---------|
|-3---3-3-|
|---3-----+




Share "Down Fo Boogie" by Tesla


TOP 10 TABS

FRESH NEW TABS

ALL ARTISTS
artist wiki

mp3bear.com
song lyrics / contact us / privacy policy / tabspace toolbar
Copyright 2004 - 2014 TabSpace.com - All Rights Reserved.
song: down fo boogie bass tabs by tesla

0.011