:: Guitar & Bass Tabs Make Home Page
A B C D E F G H I J K L M N O P Q R S T U V W X Y Z #

  for    

On TABSPACE
Info About This Tab
Artist: Misc Television
Tab Type: Bass
Difficulty: novice
Rate This Tab!
Dragon Ball Z Theme
Bass Tab
     <                                                                    
     W                     Q    Q    E  Q    E     Q    E  Q     E  Q     
G||-------------------||------------------------|------------------------|
D||-------------------||*-----------------------|------------------------|
A||-------------------||*--7----7-------5-------|--7-------5b----L--7----|
E||--0----------------||------------------------|------------------------|


  Q    Q    E  Q    E     Q    H.              Q    Q    E  Q    E   
-----------------------|--------------------|-----------------------|
-----------------------|--------------------|-----------------------|
--7----7-------5-------|--7-----------------|--7----7-------5-------|
-----------------------|--------------------|-----------------------|


  E  E  E  E  E   E  Q       Q    Q    E  Q    E     Q    H.              
--------------------------|-----------------------|---------------------||
--------------5b--L-------|-----------------------|--------------------*||
--7-----5--7---------7----|--7----7-------5-------|--7-----------------*||
-----7--------------------|-----------------------|---------------------||


   TP       TP          TP       TP          TP       TP        
   H        H           H        H           H        H         
---------------------|--------------------|--------------------|
*--------------------|--------------------|--------------------|
*--------------------|--------------------|--------------------|
---5--------8--------|--7--------4--------|--5--------8--------|


  TP       TP            TP       TP          TP       TP        
  H        H             H        H           H        H         
---------------------||--------------------|--------------------|
--------------------*||--------------------|--------------------|
--------------------*||--------------------|-----------5--------|
--7--------4---------||--5--------7--------|--8-----------------|


    Q    Q    E  Q    E     Q    E  Q     E  Q       Q    Q    E  Q    E   
|------------------------|------------------------|-----------------------|
|*-----------------------|------------------------|-----------------------|
|*--7----7-------5-------|--7-------5b----L--7----|--7----7-------5-------|
|------------------------|------------------------|-----------------------|


  Q    H.              Q    Q    E  Q    E     E  E  E  E  E   E  Q     
--------------------|-----------------------|--------------------------|
--------------------|-----------------------|--------------5b--L-------|
--7-----------------|--7----7-------5-------|--7-----5--7---------7----|
--------------------|-----------------------|-----7--------------------|


                                                  TP       TP        
  Q    Q    E  Q    E     Q    H.                 H        H         
-----------------------|---------------------||---------------------|
-----------------------|--------------------*||*--------------------|
--7----7-------5-------|--7-----------------*||*--------------------|
-----------------------|---------------------||---5--------8--------|


  TP       TP          TP       TP          TP       TP          
  H        H           H        H           H        H           
--------------------|--------------------|---------------------||
--------------------|--------------------|--------------------*||
--------------------|--------------------|--------------------*||
--7--------4--------|--5--------8--------|--7--------4---------||


  TP       TP          TP       TP          TP       TP        
  H        H           H        H           H        H         
--------------------|--------------------|--------------------|
--------------------|--------------------|--------------------|
--------------------|-----------5--------|--------------------|
--5--------7--------|--8-----------------|--5--------7--------|


  TP       TP                               
  H        H           H         H          
--------------------|---------------------||
--------------------|---------------------||
--3--------5--------|---------------------||
--------------------|--5\-----------------||




Duration Legend
---------------
W - whole
H - half
Q - quarter
E - 8th
S - 16th
. - note dotted


Tablature Legend
----------------
L - tied note
h - hammer on
p - pull off
b - bend
TP - tremolo picking



Share "Dragon Ball Z Theme" by Misc Television


TOP 10 TABS

FRESH NEW TABS

ALL ARTISTS
artist wiki

mp3bear.com
song lyrics / contact us / privacy policy / tabspace toolbar
Copyright 2004 - 2014 TabSpace.com - All Rights Reserved.
song: dragon ball z theme bass tabs by misc television

0.011