:: Guitar & Bass Tabs Make Home Page
A B C D E F G H I J K L M N O P Q R S T U V W X Y Z #

  for    

On TABSPACE
Info About This Tab
Artist: Misc Television
Tab Type: Guitar
Difficulty: intermediate
Rate This Tab!
-------------------------------------------------------------------------------
			     DRAGONBALL Z - dragonball z
-------------------------------------------------------------------------------

Tabbed by: will


e|---------------------------------------------------------------------------|
B|---------------------------------------------------------------------------|
G|---------------------------------------------------------------------------|
D|--9-9----------------5b6---------9-9----------------9-9--------------5b6---|
A|--7-7-----5----7------------7----7-7-----5----7-----7-7----5-7---5-7-------|
E|--0-0----------------------------0-0----------------0-0--------7-----------|

e|------------------|x2
B|------------------|
G|------------------|
D|--9-9-------------|
A|--7-7-----5----7--|
E|--0-0-------------|

                repeat each segment 7 times

e|---|----|---|---|---|---|---|----|---|----|---|---|---|---|---|----|
B|---|----|---|---|---|---|---|----|---|----|---|---|---|---|---|----|
G|---|----|---|---|---|-9-|-8-|----|---|----|---|---|---|-8-|-9-|-11-|
D|-7-|-10-|-9-|-6-|-7-|---|---|-10-|-7-|-10-|-9-|-6-|-7-|---|---|----|
A|---|----|---|---|---|---|---|----|---|----|---|---|---|---|---|----|
E|---|----|---|---|---|---|---|----|---|----|---|---|---|---|---|----|



e|---------------------------------------------------------------------------|
B|---------------------------------------------------------------------------|
G|---------------------------------------------------------------------------|
D|--9-9----------------5b6---------9-9----------------9-9--------------5b6---|
A|--7-7-----5----7------------7----7-7-----5----7-----7-7----5-7---5-7-------|
E|--0-0----------------------------0-0----------------0-0--------7-----------|

e|------------------|x2
B|------------------|
G|------------------|
D|--9-9-------------|
A|--7-7-----5----7--|
E|--0-0-------------|


                  repeat each segment 7 times

e|---|----|---|---|---|---|---|----|---|----|---|---|---|---|---|----|----|
B|---|----|---|---|---|---|---|----|---|----|---|---|---|---|---|----|-10-|
G|---|----|---|---|---|-9-|-8-|----|---|----|---|---|---|-8-|-9-|-11-|----|
D|-7-|-10-|-9-|-6-|-7-|---|---|-10-|-7-|-10-|-9-|-6-|-7-|---|---|----|----|
A|---|----|---|---|---|---|---|----|---|----|---|---|---|---|---|----|----|
E|---|----|---|---|---|---|---|----|---|----|---|---|---|---|---|----|----|

e|----|----|-10-|
B|-12-|-13-|----|
G|----|----|----|
D|----|----|----|
A|----|----|----|
E|----|----|----|


e|---|
B|---|
G|---|
D|-7-|
A|-5-|
E|-5-|






Share "Dragon Ball Z Theme" by Misc Television


TOP 10 TABS

FRESH NEW TABS

ALL ARTISTS
artist wiki

mp3bear.com
song lyrics / contact us / privacy policy / tabspace toolbar
Copyright 2004 - 2014 TabSpace.com - All Rights Reserved.
song: dragon ball z theme guitar tabs by misc television

0.022