:: Guitar & Bass Tabs Make Home Page
A B C D E F G H I J K L M N O P Q R S T U V W X Y Z #

  for    

On TABSPACE
Info About This Tab
Artist: 30 Seconds To Mars
Tab Type: Guitar
Rate This Tab!

-------------------------------------------------------------------------------
			ECHELON ACOUSTIC - 30 Seconds To Mars
-------------------------------------------------------------------------------
Tabbed by: Johnsen
Email: Johannesberchtold@gmx.at

Tuning: Standard

This isn't the version the band plays, but I think it fits very well with the song.
I just tabbed this because i played the first version too much :) Hope you enjoy it.


Inro: 

e|-0-0-000-0-0-000-| 
B|-1-1-111-1-0-000-|
G|-2-2-222-0-0-000-| x2
D|-2-2-222-2-2-222-|
A|-0-0-000-2-2-222-|
E|-----------------|

                            C
e|-0-0-000-0-0-000--0-0-000-0-| let the C ring 
B|-1-1-111-1-0-000--1-1-111-1-|
G|-2-2-222-0-0-000--2-2-222-0-|
D|-3-3-333-2-2-222--3-3-333-2-|
A|-0-0-000-3-3-333--0-0-000-3-|
E|----------------------------|

----------------------------------------------------------
Verse 1:

e|-0-------------------------------------0--|
B|-1-------------------------------------0--|
G|-2-------------------------------------0--|
D|-2-------------------------------------2--|
A|-0-------------------------------------2--|
E|------------------------------------------|
   Look at the red red changes in the sky
   Look at the separation in the border line


e|-0----------------------------------0---0--|
B|-1----------------------------------1---0--|
G|-2----------------------------------0---0--|
D|-3----------------------------------2---2--|
A|------------------------------------3---3--|
E|-------------------------------------------|
   But don't look at everything here inside
   And be afraid, afraid to speak your mind


Chorus:

e|------------------------0--------------0---------------0--|
B|------------------------3--------------1---------------0--|
G|------------------------2--------------0---------------0--|
D|-3/5-5------------------0--------------2---------------2--|
A|-3/5-5---------------------------------3---------------2--|
E|-1/3-3----------------------------------------------------|
       It took a moment before I lost myself in here
       It took a moment and I could not be found?
       Again and again and again and again I see your face in everything
       It took a moment the moment it could not be found?


Verse 2:

e|-0-------------------------------------0--|
B|-1-------------------------------------0--|
G|-2-------------------------------------0--|
D|-2-------------------------------------2--|
A|-0-------------------------------------2--|
E|------------------------------------------|
   What's with the fascination with the Echelon
   What's with the constant questions that you have this time


e|-0----------------------------------0---0--|
B|-1----------------------------------1---0--|
G|-2----------------------------------0---0--|
D|-3----------------------------------2---2--|
A|------------------------------------3---3--|
E|-------------------------------------------|
   What's with this circumstancial consequence
   Find oversight before this night will ever rise again


Breakdown:

e|-0-------------------------------------------------------------------------|
B|-1-------------------------------------------------------------------------|
G|-2-------------------------------------------------------------------------|
D|-2-------------------------------------------------------------------------|
A|---------------------------------------------------------------------------|
E|---------------------------------------------------------------------------|
   It's all you've got inside your head, better get up and leave instead


Chorus:

e|------------------------0--------------0---------------0--|
B|------------------------3--------------1---------------0--|
G|------------------------2--------------0---------------0--|
D|-3/5-5------------------0--------------2---------------2--|
A|-3/5-5---------------------------------3---------------2--|
E|-1/3-3----------------------------------------------------|
       It took a moment before I lost myself in here
       It took a moment and I could not be found?
       Again and again and again and again I see your face in everything
       It took a moment the moment it could not be found?


Bridge:

e|-0-------------------------------------------------0-----------------------|
B|-1-------------------------------------------------0-----------------------|
G|-2-------------------------------------------------2-----------------------|
D|-2-------------------------------------------------2-----------------------|
A|---------------------------------------------------------------------------|
E|---------------------------------------------------------------------------|
To find ourselves lost here within we need reasons why

e|-0-------------------------------------------------0-----------------0-----|
B|-1-------------------------------------------------1-----------------3-----|
G|-2-------------------------------------------------0-----------------0-----|
D|-3-------------------------------------------------2-----------------2-----|
A|---------------------------------------------------3-----------------3-----|
E|---------------------------------------------------------------------------|
So we take this bridge with the other's that will thrive in the great divide

e|-------------0-------------------------0--|
B|-------------1-------------------------0--|
G|-------------2-------------------------0--|
D|-------------2-------------------------2--|
A|-------------0-------------------------2--|
E|------------------------------------------|
   Look at the red red changes in the sky...

e|-------------0-------------------------0---0--|
B|-------------1-------------------------0---0--|
G|-------------2-------------------------2---0--|
D|-------------2-------------------------2---2--|
A|-------------0-------------------------2---2--|
E|----------------------------------------------|


Chorus:

e|------------------------0--------------0---------------0--|
B|------------------------3--------------1---------------0--|
G|------------------------2--------------0---------------0--|
D|-3/5-5------------------0--------------2---------------2--|
A|-3/5-5---------------------------------3---------------2--|
E|-1/3-3----------------------------------------------------|
       Again and again and again and again I see your face in everything
       It took a moment the moment it could not be found?
       It took a moment before I lost myself in here
       It took a moment and I could not be found?
       Again and again and again and again I see your face in everything
       It took a moment the moment it could not be found

Outro:


e|-0---0---------0-0-0-----0---0---------1-------|
B|-1---3---------0-0-0-----1---3---------3-------|
G|-2---2---------0-2-0-----2---2---------2-------|
D|-2---2---------2-2-2-----2---2---------0-------|
A|-0---0---------2-2-2-----0---0-----------------|
E|-----------------------------------------------|



Share "Echelon Acoustic" by 30 Seconds To Mars


TOP 10 TABS

FRESH NEW TABS

ALL ARTISTS
artist wiki

mp3bear.com
song lyrics / contact us / privacy policy / tabspace toolbar
Copyright 2004 - 2014 TabSpace.com - All Rights Reserved.
song: echelon acoustic guitar tabs by 30 seconds to mars

0.012