:: Guitar & Bass Tabs Make Home Page
A B C D E F G H I J K L M N O P Q R S T U V W X Y Z #

  for    

On TABSPACE
Info About This Tab
Artist: 30 Seconds To Mars
Tab Type: Guitar
Difficulty: advanced
Rate This Tab!
Artist: 30 Seconds to Mars
Song: Echelon
Album: 30 Seconds to Mars
Tabbed by: StarChild
website: www.lifeonmars.tk / www.30secondstomarsmex.tk
 

Tuning: (from low to high) CGCFAD
Note: * by itself refers to guitar 5

Intro - guitar 1
*Listen to album for strumming pattern
|-----------------|---------------------------------------------|
|-----------------|---------------------------------------------|
|-----------------|---------------------------------------------|
|----7-5-7-6-4----|-7-5-7-6-4-11\----7-5-7-6-4/11---------------|
|----7-5-5-4-2----|-7-5-5-4-2--9\----7-5-5-4-2/9----------------|
|----7-5----------|-7-5--------------7-5------------------------|
Play two times

 

Chorus - guitar 2 (w/ flanger or chorus)
*Listen to album for strumming pattern
Play this twice
|---------------------------------------------------------------|
|---------------------------------------------------------------|
|---------------------------------------------------------------|
|--9--11b12r11--9-------11b12-r11--9----------------------------|
|-------------------12----------------12------------------------|
|---------------------------------------------------------------|

 

Play this twice
|---------------------------------------------------------------|
|---------------------------------------------------------------|
|---------------------------------------------------------------|
|--9--11h12p11--14--12--11h12p11--14--12------------------------|
|---------------------------------------------------------------|
|---------------------------------------------------------------|

 

Second Verse Acoustic Melody - guitar 3
|---------------------------------------------------------------|
|---------------------------------------------------------------|
|-------7p6-----------2h4------------------------------------------|
|-----5-------------4-------------------------------------------|
|---5-------------2---------------------------------------------|
|-5-------------------------------------------------------------|

 

Chorus w/Variations - guitar 1
*Listen to album for strumming pattern
|-----------------|---------------------------------------------|
|-----------------|---------------------------------------------|
|-----------------|---------------------------------------------|
|----7-5-7-6-4----|----7-5-7-4-11\----7-5-7-6-2-----------------|
|----7-5-5-4-2----|----7-5-5-2--9\----7-5-5-4-4-----------------|
|----7-5----------|----7-5------------7-5-----------------------|
Play two times

 

Chorus w/ variations - guitar 2 (w/ flanger or chorus)
*Listen to album for strumming pattern
Play this twice
|---------------------------------------------------------------|
|---------------------------------------------------------------|
|---------------------------------------------------------------|
|--9--11b12r11--9------11b12r11--9------------------------------|
|------------------12---------------12--------------------------|
|---------------------------------------------------------------|

|---------------------------------------------------------------|
|---------------------------------------------------------------|
|---------------------------------------------------------------|
|--9--11h12p11--14--12--11h12p11--14--12------------------------|
|---------------------------------------------------------------|
|---------------------------------------------------------------|

|---------------------------------------------------------------|
|---------------------------------------------------------------|
|--11h12p11--9----11h12p11--9----11h12p11--9--11--12--14--16----|
|---------------------------------------------------------------|
|---------------------------------------------------------------|
|---------------------------------------------------------------|

 

Bridge  guitar 2 (w/ flanger or chorus)
|---------------------------------------------------------------|
|---------------------------------------------------------------|
|---------------------------------------------------------------|
|----14b------16--\-------------14b------16---------------------|
|---------------------------------------------------------------|
|---------------------------------------------------------------|
*Basically bend and hold until the slide

 

Chorus w/ variations - guitar 4 (w/ flanger and delay)
*This happens only once here
|---------------------------------------------------------------|
|-----------------------15\-------------------------------------|
|------------------------x\-------------------------------------|
|-----------------------12\-------------------------------------|
|---------------------------------------------------------------|
|---------------------------------------------------------------|

 

Bridge - guitar 1
|---------------------------------------------------------------|
|---------------------------------------------------------------|
|---------------------------------------------------------------|
|--4-5-7-7/9--7\5--4-2-4-5-7--7/9\6-----------------------------|
|--4-5-7-5/7--5\3--4-2-4-5-5--5/7\4-----------------------------|
|--4-5-7-----------4-2-4-5--------------------------------------|

 

Acoustic - guitar 4
|---------------------------------------------------------------|
|---------------------------------------------------------------|
|------2h4----------7p6--------2h4------------------------------|
|----4------------5----------4----------------------------------|
|--2------------5----------2------------------------------------|
|-------------5-------------------------------------------------|

 

Chorus w/ more variations - guitar 1
*Listen to album for strumming pattern
|---------------------------------------------------------------|
|---------------------------------------------------------------|
|---------------------------------------------------------------|
|--7-5-7-6-4----7-5-7-6-4-11\9\7\6----7-5-7-6-4----7-5-7-6-4----|
|--7-5-5-4-2----7-5-5-4-2--9\7\5\4----7-5-5-4-2----7-5-5-4-2----|
|--7-5----------7-5-------------------7-5----------7-5----------|

|---------------------------------------------------------------|
|---------------------------------------------------------------|
|---------------------------------------------------------------|
|--7-5-7-6-4----7-5-7-6-4-11/13\11--9-6-7-----------------------|
|--7-5-5-4-2----7-5-5-4-2--9/10\-9--7-4-5-----------------------|
|--7-5----------7-5---------------------------------------------|

 

Chorus w/ more variations - guitar 2
*Listen to album for strumming pattern
|---------------------------------------------------------------|
|---------------------------------------------------------------|
|------9h11p9-12-11-9h11p9-12-11--------------------------------|
|11-12---------------------------11-12-9h11p9-12-11-9h11p9-12-11|
|---------------------------------------------------------------|
|---------------------------------------------------------------|

*
|---------------------------------------------------------------|
|---------------------------------------------------------------|
|---------------------------------------------------------------|
|--9--11b12r11--9---------------------11b12r11--9---------------|
|--------------------------------------------------12-----------|
|---------------------------------------------------------------|
      ^Harmony Starts                              ^Harmony ends

|---------------------------------------------------------------|
|---------------------------------------------------------------|
|---------------------------------------------------------------|
|--9--11h12p11--14-12------11h12p11--14--12---------------------|
|---------------------------------------------------------------|
|---------------------------------------------------------------|
      ^Harmony starts                    ^Harmony ends

|---------------------------------------------------------------|
|---------------------------------------------------------------|
|---------------------------------------------------------------|
|--9--11h12p11--14-12------11h12p11--14--12---------------------|
|---------------------------------------------------------------|
|---------------------------------------------------------------|
      ^Harmony starts                    ^Harmony ends

 

Outro - guitar 2 (w/ flanger and delay)
|---------------------------------------------------------------|
|---------------------------------------------------------------|
|-12\11-9----12\11-9----12\11-7----12\11-7----------------------|
|--x\x--x-----x\x--x-----x\x--x-----x\x--x----------------------|
|-10\9--7----11\9--7----10\9--5----10\9--5----------------------|
|---------------------------------------------------------------|

|---------------------------------------------------------------|
|---------------------------------------------------------------|
|-12\11-9----12\11-9----12\11-9----12\11-7----------------------|
|--x\x--x-----x\x--x-----x\x--x-----x\x--x----------------------|
|-10\9--7----11\9--7----10\9--7----10\9--5----------------------|
|---------------------------------------------------------------|

|---------------------------------------------------------------|
|---------------------------------------------------------------|
|-12\11-9----12\11-9----12\11-7----12\11-7----------------------|
|--x\x--x-----x\x--x-----x\x--x-----x\x--x----------------------|
|-10\9--7----11\9--7----10\9--5----10\9--5----------------------|
|---------------------------------------------------------------|

|---------------------------------------------------------------|
|---------------------------------------------------------------|
|-12\11-14----12\11-14----12\11-7----12\11-7--------------------|
|--x\x--x-----x\x---x------x\x--x-----x\x--x--------------------|
|-10\9--12----11\9--12----10\9--5----10\9--5--------------------|
|---------------------------------------------------------------|

 

There is a fifth guitar harmonizing with this part. * This is it.
Harmonies - guitar 5
|---------------------------------------------------------------|
|---------------------------------------------------------------|
|-9h11p9-------------------9h11p9-------------------------------|
|---------12-----------------------12--11-----------------------|
|---------------------------------------------------------------|
|---------------------------------------------------------------|
  ^Harmony Starts                      ^Harmony ends

|---------------------------------------------------------------|
|---------------------------------------------------------------|
|-9h11p9--9----------------9h11p9-------------------------------|
|----------------------------------12--11-----------------------|
|---------------------------------------------------------------|
|---------------------------------------------------------------|
  ^Harmony Starts                      ^Harmony ends

|---------------------------------------------------------------|
|---------------------------------------------------------------|
|-9h11p9--12--11---------------9h11p9--12--11-------------------|
|---------------------------------------------------------------|
|---------------------------------------------------------------|
|---------------------------------------------------------------|
  ^Harmony Starts                          ^Harmony ends


Share "Echelon" by 30 Seconds To Mars


TOP 10 TABS

FRESH NEW TABS

ALL ARTISTS
artist wiki

mp3bear.com
song lyrics / contact us / privacy policy / tabspace toolbar
Copyright 2004 - 2014 TabSpace.com - All Rights Reserved.
song: echelon guitar tabs by 30 seconds to mars

0.008