:: Guitar & Bass Tabs Make Home Page
A B C D E F G H I J K L M N O P Q R S T U V W X Y Z #

  for    

On TABSPACE
Info About This Tab
Artist: Idlewild
Tab Type: Guitar
Rate This Tab!
----------------------------------------------------------------------------
			     El Capitan - Idlewild
----------------------------------------------------------------------------
Tabbed by: acoustic-fish
Tuning: EADGBe (standard)

one of the best songs on Warnings/Promises, there is only one tab for this on the
and its not so good, so heres how i play it.

the tabs are not in the right strumming pattern or timing, so listen to the song. this
just a guideline.

intro: (piano tabbed for guitar)
 e|------8~------8~----8~----8~------5--------1-------3-------5-----|------|
 B|-10~--------------------------6--------3-------5-------6-------3-|------|
 G|-10~-----9-------9------------7--------3-------5-------7-------3-|------|
 D|---------10------------------------------------------------------|------|
 A|-8~------7--------------------5--------1-------3-------5-------1-|------|
 E|-----------------------------------------------------------------|------|
                                                                      by the

verse 1: (repeat guitar 4 times)
 e|-----------------------------------------------------------------|
 B|-5-5-5-5-5-5-5-5-6-6-6-6-6-6-6-6-3-3-3-3-3-3-3-3-3-3-3-3-3-3-3-3-|
 G|-5-5-5-5-5-5-5-5-7-7-7-7-7-7-7-7-3-3-3-3-3-3-3-3-3-3-3-3-3-3-3-3-|
 D|-5-5-5-5-5-5-5-5-7-7-7-7-7-7-7-7-3-3-3-3-3-3-3-3-3-3-3-3-3-3-3-3-|
 A|-3-3-3-3-3-3-3-3-5-5-5-5-5-5-5-5-1-1-1-1-1-1-1-1-1-1-1-1-1-1-1-1-|
 E|-----------------------------------------------------------------|
    harbour, i harbour the strangest memories older than i could
    ever be stranded in nostalgia so tonight i'll try
    harder but it's hard to fix this spotlight on me in a
    cast that's taken places i'm not sure of where i want to be


chorus: (repeat 4 times)
e|-----------------------------------------------------------------|
B|-10--10--10--10------------------6---6---6---6---3---3---3---3---|
G|-10--10--10--10--9---9---9---9---7---7---7---7---3---3---3---3---|
D|-10--10--10--10--10--10--10--10--7---7---7---7---3---3---3---3---|
A|-8---8---8---8---7---7---7---7---5---5---5---5---1---1---1---1---|
E|-----------------------------------------------------------------|
       stand up stand up and stand out i'll climb el capitan
             and jump off to cheers from the crowd
       stand up stand up and stand out and i hope you take your
   camera to photograph my tears as they hit the ground


verse 2: (same as verse 1, repeat guitar 4 times)
e|-----------------------------------------------------------------|
B|-5-5-5-5-5-5-5-5-6-6-6-6-6-6-6-6-3-3-3-3-3-3-3-3-3-3-3-3-3-3-3-3-|
G|-5-5-5-5-5-5-5-5-7-7-7-7-7-7-7-7-3-3-3-3-3-3-3-3-3-3-3-3-3-3-3-3-|
D|-5-5-5-5-5-5-5-5-7-7-7-7-7-7-7-7-3-3-3-3-3-3-3-3-3-3-3-3-3-3-3-3-|
A|-3-3-3-3-3-3-3-3-5-5-5-5-5-5-5-5-1-1-1-1-1-1-1-1-1-1-1-1-1-1-1-1-|
E|-----------------------------------------------------------------|
   no one even listens the same way that no one ever laughs i'm taking the
  car out of the snow i'm wondering where the summer went to circled by your
   secrets i'm hoping they dont include me at least i'm in good
   company because there's no one else around except me


chorus: (repeat 4 times)
e|-----------------------------------------------------------------|
B|-10--10--10--10------------------6---6---6---6---3---3---3---3---|
G|-10--10--10--10--9---9---9---9---7---7---7---7---3---3---3---3---|
D|-10--10--10--10--10--10--10--10--7---7---7---7---3---3---3---3---|
A|-8---8---8---8---7---7---7---7---5---5---5---5---1---1---1---1---|
E|-----------------------------------------------------------------|
       stand up stand up and stand out i'll climb el capitan
             just to watch the world slow down
       stand up stand up and stand out and i hope you take your
   camera silence makes the loudest sound it seems


Interlude: (repeat 3 times)
e|-----------------------------------------------------------------|
B|-6---6---6---6---5---5---5---5---3---3---3---3---3---3---3---3---|
G|-7---7---7---7---5---5---5---5---3---3---3---3---3---3---3---3---|
D|-7---7---7---7---5---5---5---5---3---3---3---3---3---3---3---3---|
A|-5---5---5---5---3---3---3---3---1---1---1---1---1---1---1---1---|
E|-----------------------------------------------------------------|
 far too easy to say the same thing i'll choose my own way to use my life up
   finally found a new way to say the same things in imaginary
   ways i'll use my life up

then play this twice: (lyrics come in on the second time)
e|-----------------------------------------------------------------|
B|-10--10--10--10------------------6---6---6---6---3---3---3---3---|
G|-10--10--10--10--9---9---9---9---7---7---7---7---3---3---3---3---|
D|-10--10--10--10--10--10--10--10--7---7---7---7---3---3---3---3---|
A|-8---8---8---8---7---7---7---7---5---5---5---5---1---1---1---1---|
E|-----------------------------------------------------------------|
                                                       you were looking at

outro:
e|-----------------------------------------------------------------|
B|-10--10--10--10------------------6---6---6---6---3---3---3---3---|
G|-10--10--10--10--9---9---9---9---7---7---7---7---3---3---3---3---|
D|-10--10--10--10--10--10--10--10--7---7---7---7---3---3---3---3---|
A|-8---8---8---8---7---7---7---7---5---5---5---5---1---1---1---1---|
E|-----------------------------------------------------------------|
   pictures in the distance hoping to see the future in your
   pictures of the distance hoping to see the future looking at
   pictures in the distance hoping to see the future through your
   pictures of the distance hoping to see the future looking at
   pictures in the distance hoping to see the future in your
   pictures of the distance hoping to see the future looking at
   pictures of the distance hoping to see the future in your
   pictures of the distance hoping to see the future in your


repeat and fade out, or end on F
e|------|      e|--1--|
B|--10--|      B|--1--|
G|--10--|  or  G|--2--|
D|--10--|      D|--3--|
A|--8---|      A|--3--|
E|------|      E|--1--|


thats it, enjoy!


lyrics:
-------
by the harbour, i harbour the strangest memories
older than i could ever be, stranded in nostalgia
so tonight i'll try harder, but it's hard to fix this spotlight on me
in a cast that's taken places, i'm not sure of where i want to be

stand up, stand up, and stand out, i'll climb el capitan
and jump off to cheers from the crowd
stand up, stand up, and stand out, and i hope you take your camera
to photograph my tears as they hit the ground

no one even listens, the same way that no one ever laughs
i'm taking the car out of the snow i'm wondering where the summer went to circled by 
secrets, i'm hoping they dont include me
at least i'm in good company, because there's no one else around except me

stand up, stand up, and stand out, i'll climb el capitan
just to watch the world slow down
stand up, stand up, and stand out, and i hope you take your camera
silence makes the loudest sound

it seems far too easy to say the same thing
i'll choose my own way to use my life up
finally found a new way to say the same things in imaginary ways
i'll use my life up

you were looking at pictures in the distance hoping to see the future
in your pictures of the distance hoping to see the future
looking at pictures in the distance hoping to see the future
through your pictures of the distance hoping to see the future
looking at pictures in the distance hoping to see the future
in your pictures of the distance hoping to see the future
looking at pictures in the distance hoping to see the future
in your pictures of the distance hoping to see the future
in your pictures of the distance hoping to see the future
============================================================================
| /  slide up
| \  slide down
| h  hammer-on
| p  pull-off
| ~  vibrato
| +  harmonic
| x  Mute note
============================================================================


Share "El Capitan" by Idlewild


TOP 10 TABS

FRESH NEW TABS

ALL ARTISTS
artist wiki

mp3bear.com
song lyrics / contact us / privacy policy / tabspace toolbar
Copyright 2004 - 2014 TabSpace.com - All Rights Reserved.
song: el capitan guitar tabs by idlewild

0.014