:: Guitar & Bass Tabs Make Home Page
A B C D E F G H I J K L M N O P Q R S T U V W X Y Z #

  for    

On TABSPACE
Info About This Tab
Artist: Panda
Tab Type: Bass
Rate This Tab!
Tq quiero muchho Rubi !!!!!


INTRO
4|----------2--2---4---4----|
3|-44444444--4---4---6---6--|
2|--------------------------|
1|--------------------------|

Y eso se repite 4 veces y en la quinta empieza el verso...

VERSO (LA VI POR VEZ PRIMERA, NO ERAMOS NI ADOLESCENTES...)
4|----------2--2---4---4----|
3|-44444444--4---4---6---6--|
2|--------------------------|
1|--------------------------|

Hasta cuando dice (YO TRAIA MI SWEATER GEEK Y UN PAR DE LENTEEES)

4|--xx2xx2xx2xx2--xx4xx4xx4xx4-|
3|-----------------------------|
2|-----------------------------|
1|-----------------------------|

VERSO (ERAMOS SOLO UN PAR DE NIÑOS, NO HABIA PROBLEMA CONMIGO...)
4|----------2--2---4---4----|
3|-44444444--4---4---6---6--|
2|--------------------------|
1|--------------------------|

Hasta cuando dice (LUEGO ME DI CUENTA QUE ESTABA PERDIDO, EN EL VATICANO)

4|--xx2xx2xx2xx2--xx4xx4xx4xx4-|
3|-----------------------------|
2|-----------------------------|
1|-----------------------------|

Y siguen los coros

CORO (TODAVIA VEO ESE LUGAR, COMO SI ESTO FUERA REALIDAD)
4|--------------------66666666--444---4-3-|
3|--44444444-33333333---------------6-----|
2|----------------------------------------|
1|----------------------------------------|

(HACE TANTO TIEEEMPO)
4|--xx2xx2xx2xx2--xx4xx4xx4xx4-|
3|-----------------------------|
2|-----------------------------|
1|-----------------------------|

CORO (TODAVIA VEO ESE LUGAR, COMO SI ESTO FUERA REALIDAD)
4|--------------------66666666--444---4-3-|
3|--44444444-33333333---------------6-----|
2|----------------------------------------|
1|----------------------------------------|

(HACE TANTO TIEEEMPO)
4|--xx2xx2xx2xx2--xx4xx4xx4xx4-|
3|-----------------------------|
2|-----------------------------|
1|-----------------------------|

(UU HACE TANTO TIEEEMPOUOO)
4|--xx2xx2xx2xx2--xx4xx4xx4xx4-|
3|-----------------------------|
2|-----------------------------|
1|-----------------------------|

(TODAVIA LA RECUERDO)
4|--xx2xx2xx2xx2--4~--|
3|--------------------|
2|--------------------|
1|--------------------|

INTRO
4|----------2--2---4---4----|
3|-44444444--4---4---6---6--|
2|--------------------------|
1|--------------------------|

Y eso se repite 4 veces y en la quinta empieza el verso...

VERSO (Y AHORA ADIVINEN QUE YO REGRESO AL VATICANO...)
4|----------2--2---4---4----|
3|-44444444--4---4---6---6--|
2|--------------------------|
1|--------------------------|

Hasta cuando dice (Y AHORA SI PORFIN LA CONOCI)

4|--xx2xx2xx2xx2--xx4xx4xx4xx4-|
3|-----------------------------|
2|-----------------------------|
1|-----------------------------|

VERSO (LUEGO YO LA INVITE A SALIIR CLARO ME DIJO QUE SI...)
4|----------2--2---4---4----|
3|-44444444--4---4---6---6--|
2|--------------------------|
1|--------------------------|

Hasta cuando dice (DESPUES DE TODO ELLA ME PLANTOOO, EN EL VATICANO)

4|--xx2xx2xx2xx2--xx4xx4xx4xx4-|
3|-----------------------------|
2|-----------------------------|
1|-----------------------------|

Y siguen los coros

CORO (TODAVIA VEO ESE LUGAR, COMO SI ESTO FUERA REALIDAD)
4|--------------------66666666--444---4-3-|
3|--44444444-33333333---------------6-----|
2|----------------------------------------|
1|----------------------------------------|

(HACE TANTO TIEEEMPO)
4|--xx2xx2xx2xx2--xx4xx4xx4xx4-|
3|-----------------------------|
2|-----------------------------|
1|-----------------------------|

CORO (TODAVIA VEO ESE LUGAR, COMO SI ESTO FUERA REALIDAD)
4|--------------------66666666--444---4-3-|
3|--44444444-33333333---------------6-----|
2|----------------------------------------|
1|----------------------------------------|

(HACE TANTO TIEEEMPO)
4|--xx2xx2xx2xx2--xx4xx4xx4xx4-|
3|-----------------------------|
2|-----------------------------|
1|-----------------------------|

(UU HACE TANTO TIEEEMPOUOO)
4|--xx2xx2xx2xx2--xx4xx4xx4xx4-|
3|-----------------------------|
2|-----------------------------|
1|-----------------------------|

(TODAVIA LA RECUERDO)
4|--xx2xx2xx2xx2--4~--|
3|--------------------|
2|--------------------|
1|--------------------|

INTRO
4|----------2--2---4---4-------|
3|-44444444--4---4---6---6-4~--|
2|-----------------------------|
1|-----------------------------|

Y eso se repite 5 veces ...


Share "En El Vaticano" by Panda


TOP 10 TABS

FRESH NEW TABS

ALL ARTISTS
artist wiki

mp3bear.com
song lyrics / contact us / privacy policy / tabspace toolbar
Copyright © 2004 - 2014 TabSpace.com - All Rights Reserved.
song: en el vaticano bass tabs by panda

0.013