:: Guitar & Bass Tabs Make Home Page
A B C D E F G H I J K L M N O P Q R S T U V W X Y Z #

  for    

On TABSPACE
Info About This Tab
Artist: 30 Seconds To Mars
Tab Type: Bass
Rate This Tab!
End of the Beginning
by: 30 Seconds to Mars
Bass Tab by: Icewolfen@gmail.com

The bass comes in right when the drums really start play at 0:20

Intro
G----------------------------|
D----------------------------|
A----------------------------|
E-6*16/16*16/11*16/14*6/13*10

Repeats again except the end is a little diferent

G---------------------------------|
D---------------------------------|
A---------------------------------|
E-6*16/16*16/11*16/14-14-14/13-13-|

Pre-Verse #1

"Here we are searching..."
G----------------------------|
D----------------------------|
A-6-9-3-11-4-7-6-9-3-11-14-7-|
E----------------------------|
Repeat X2

Verse #1

"It's the end, here today..."
G---------------------------------|
D---------------------------------|
A---------------------------------|
E-666/161616/18/111111/141414/1313
Repeat X2

Post Verse #1

"As the day divides the night..."
G----------------------------|
D----------------------------|
A-6-9-3-11-4-7-6-9-3-11-14-7-|
E----------------------------|

Verse #2

"Watch the men, multiply..."
G---------------------------------|
D---------------------------------|
A---------------------------------|
E-666/161616/18/111111/141414/1313
Repeat X2

Pre-Chorus

you'll hear it between "Cycle" and "Here we..."
G------|
D------|
A-9/6--
E------

Chorus

"You saw what you did..."
G----------------------------|
D----------------------------|
A----------------------------|
E-6*28-8*4-2*12-0*4-1*12-4*4-|

Repeats but is slightly different at the end

"Now theres a feeling..."
G---------------------------|
D---------------------------|
A---------------------------|
E-6*28-8*4-2*12-11*4-1*16---|

Bass Pauses for a little bit until...

Bridge

"Can you feel it..."

G------------------------------10-------------------------|
D----------------------------8----------8-11-10---8-11-10-|
A-131313-13-12-11-11-11-13-6------6-8-9---------8---------|
E---------------------------------------------------------|
Repeat X3

Repeats 4th time but cut short like so...

G------------------------------10-----------------|
D----------------------------8----------8-11-10---|
A-131313-13-12-11-11-11-13-6------6-8-9---------8-|
E-------------------------------------------------|

"Another Time, Another Place..."

G--------------------------|
D--------------------------|
A-6x8/9x4/3x4/11x8/4x4/7x4-
E--------------------------

Repeats but is different at the end with a long slide from 4 to 14

"Some paradigm has shunned..."

G--------------------------|
D--------------------------|
A-6x8/9x4/3x4/11x8/4/14----|
E--------------------------|

Pre-Verse

G----------------------------|
D----------------------------|
A-6-9-3-11-4-7-6-9-3-11-14-7-|
E----------------------------|

Repeat with diff ending

G---------------------------|
D---------------------------|
A-6-9-3-11-4-7-6-9-3-11x24--|
E---------------------------|

Chorus

G----------------------------|
D----------------------------|
A----------------------------|
E-6x28-8x4-2x12-0x4-1x12-4x4-|

Repeat like usual with a little diff in end..

G----------------------------------------|
D----------------------------------------|
A--------------------------------3-3-2-2-|
E-6x28-8x4-2x12-11x4-1x8-3-3-2-2---------|

Chorus again

G----------------------------|
D----------------------------|
A----------------------------|
E-6x28-8x4-2x12-0x4-1x12-4x4-|

Repeat again but it ends like so

G--------------------|
D--------------------|
A--------------------|
E-6*28-8*4-2*12-11*4-|


Share "End Of The Beginning" by 30 Seconds To Mars


TOP 10 TABS

FRESH NEW TABS

ALL ARTISTS
artist wiki

mp3bear.com
song lyrics / contact us / privacy policy / tabspace toolbar
Copyright 2004 - 2014 TabSpace.com - All Rights Reserved.
song: end of the beginning bass tabs by 30 seconds to mars

0.017