:: Guitar & Bass Tabs Make Home Page
A B C D E F G H I J K L M N O P Q R S T U V W X Y Z #

  for    

On TABSPACE
Info About This Tab
Artist: Misc Television
Tab Type: Bass
Difficulty: intermediate
Rate This Tab!
intro
G)----------------8--8------3---------------(
D)-----8-------------------------------6--7-(
A)---------6--6-6---------------------------( 
E)6--6--6---------------2--2--2--4--4-4-----(

Verse
G)----------------(
D)----------------(
A)----6-----------(
E)6-------2---4---(

chorus
G)-------------------------------(
D)-------------------------------(
A)-------6-6-66-6----------------(
E)6-6-66----------2-2-22-4-4-44-5(

And the chords are A# D# F# G#
Thats pretty much it
got any questions e-mail jacksonplumpton@gmail.com 


Share "Erin Simpson Show" by Misc Television


TOP 10 TABS

FRESH NEW TABS

ALL ARTISTS
artist wiki

mp3bear.com
song lyrics / contact us / privacy policy / tabspace toolbar
Copyright 2004 - 2014 TabSpace.com - All Rights Reserved.
song: erin simpson show bass tabs by misc television

0.015