:: Guitar & Bass Tabs Make Home Page
A B C D E F G H I J K L M N O P Q R S T U V W X Y Z #

  for    

On TABSPACE
Info About This Tab
Artist: Evanescence
Tab Type: Bass
Rate This Tab!
standard tuning
                                                                  
|-------------------------------------------------------------------|
|-------------------------------------------------------------------|
|-------------------------------------------------------------------|
|---3---3--6-5--3---3--6-5--3---3--6-5------------------------------|

                                                                   2x
|-------------------------------------------------------------------|
|-------------------------------------------------------------------|
|---------------------------------0-0-0-0-0-0-0-0-0-0-0-0-0-0-0-0---|
|-1-1-1-1-1-1-1-1-1-1-1-1-1-1-1-1-----------------------------------|

                                                                   2x
|-------------------------------------------------------------------|
|-------------------------------------------------------------------|
|-4-4-4-4-4-4-4-4-7-7-7-7-7-7-7-7-----------------------------------|
|---------------------------------4-4-4-4-4-4-4-4-4-4-4-4-4-4-4-4---|

                                                                  3x
|-------------------------------------------------------------------|
|-------------------------------------------------------------------|
|-------------------------------------------------------------------|
|-3-3-3-3-3-3-3-3-6-6-6-6-5-5-5-5-----------------------------------|

                                                                  2x
|-------------------------------------------------------------------|
|-------------------------------------------------------------------|
|-------------------------------------------------------------------|
|-0--0-0--0--0-0--3--3-3--3--3-3--2--2-2--2--2-2--2--2-2--2--2-2----|

                                                                   2x
|-------------------------------------------------------------------|
|-----------------3~~~----------------------------------------------|
|-5~~~----------------------------2--2-2--2--2-2--2--2-2--2--2-2----|
|-------------------------------------------------------------------|

|-------------------------------------------|
|-------------------------------------------|
|-------------------------------------------|
|-3-3-3-3-3-3-3-3-6-6-6-6-5-5-5-5-3---------|


Share "Eternal" by Evanescence


TOP 10 TABS

FRESH NEW TABS

ALL ARTISTS
artist wiki

mp3bear.com
song lyrics / contact us / privacy policy / tabspace toolbar
Copyright 2004 - 2014 TabSpace.com - All Rights Reserved.
song: eternal bass tabs by evanescence

0.007