:: Guitar & Bass Tabs Make Home Page
A B C D E F G H I J K L M N O P Q R S T U V W X Y Z #

  for    

On TABSPACE
Info About This Tab
Artist: Evanescence
Tab Type: Guitar
Rate This Tab!
Band- Evanescence
Song- Eternal

This is an old Evanescence song.ENJOY!!!!

E||----------13--------|------13----11----9----|----------------9----|------------------------|
B||--------------------|-----------------------|--13-----------------|--13----11--------------|
G||*-------------------|-----------------------|---------------------|--------------13--------|
D||--------------------|-----------------------|---------------------|------------------------|
A||*-------------------|-----------------------|---------------------|------------------------|
E||--------------------|-----------------------|---------------------|------------------------|

------------------------|--------------------------|------------------------|------13----11----9----|
------------11----13----|--11----------------------|------------------------|-----------------------|
------13----------------|--------13----12----12----|--13----12----10--------|-----------------------|
------------------------|--------------------------|------------------------|-----------------------|
------------------------|--------------------------|------------------------|-----------------------|
------------------------|--------------------------|------------------------|-----------------------|

----------------9----|------------------------|------------------------|--------------------------|
--13-----------------|--13----11--------------|------------11----13----|--11----------------------|
---------------------|--------------13--------|------13----------------|--------13----12----12----|
---------------------|------------------------|------------------------|--------------------------|
---------------------|------------------------|------------------------|--------------------------|
---------------------|------------------------|------------------------|--------------------------|


                                               (second time it starts to fade right here...)
------------------------|------------------|--------------------------|--------------------------|
------------------------|------------------|--------------------------|--------------11----13----|
--13----12----10--------|(10)--------------|--13----12----10----10----|--12----13----------------|
------------------------|------------------|--------------------------|--------------------------|
------------------------|------------------|--------------------------|--------------------------|
------------------------|------------------|--------------------------|--------------------------|

------------------|--------------------------|--------------------------|--------------------------|
-(13)-------------|--------------------------|--------------------------|--------------------------|
------------------|--13----12----10----10----|--12----13----12----12----|--12----13----12----10----|
------------------|--------------------------|--------------------------|--------------------------|
------------------|--------------------------|--------------------------|--------------------------|
------------------|--------------------------|--------------------------|--------------------------|

--------------------------|--------------9----11----|-(11)-------------|--------------------------|
--13----11----------------|--11----13---------------|------------------|--13----11----------------|
--------------13----13----|-------------------------|------------------|--------------13----13----|
--------------------------|-------------------------|------------------|--------------------------|
--------------------------|-------------------------|------------------|--------------------------|
--------------------------|-------------------------|------------------|--------------------------|

--------------------------|--------------------------||
--11----13----11----11----|--11----------------------||
--------------------------|--------13----12----10--*-||
--------------------------|--------------------------||
--------------------------|------------------------*-||
--------------------------|--------------------------|| x2


Here it is one octave lower (maybe you'll find it easier to play):
E||----------1--------|------1--------------|--------------------|---------------------|
B||-------------------|-----------4----2----|--1------------2----|--1------------------|
G||-------------------|---------------------|--------------------|-------3----1--------|
D||-------------------|---------------------|--------------------|---------------------|
A||-------------------|---------------------|--------------------|---------------------|
E||-------------------|---------------------|--------------------|---------------------|

---------------------|----------------------|---------------------|------1--------------|
----------------1----|----------------------|---------------------|-----------4----2----|
------1----3---------|--3----1----0----0----|--1----0-------------|---------------------|
---------------------|----------------------|------------3--------|---------------------|
---------------------|----------------------|---------------------|---------------------|
---------------------|----------------------|---------------------|---------------------|

--------------------|---------------------|---------------------|----------------------|
--1------------2----|--1------------------|----------------1----|----------------------|
--------------------|-------3----1--------|------1----3---------|--3----1----0----0----|
--------------------|---------------------|---------------------|----------------------|
--------------------|---------------------|---------------------|----------------------|
--------------------|---------------------|---------------------|----------------------|


                                         (second time it starts to fade right here...)
---------------------|------------------|----------------------|----------------------|
---------------------|------------------|----------------------|-----------------1----|
--1----0-------------|------------------|--1----0--------------|--0----1----3---------|
------------3--------|-(3)--------------|------------3----3----|----------------------|
---------------------|------------------|----------------------|----------------------|
---------------------|------------------|----------------------|----------------------|

------------------|----------------------|----------------------|----------------------|
-(1)--------------|----------------------|----------------------|----------------------|
------------------|--1----0--------------|--0----1----0----0----|--0----1----0---------|
------------------|------------3----3----|----------------------|-----------------3----|
------------------|----------------------|----------------------|----------------------|
------------------|----------------------|----------------------|----------------------|

----------------------|----------------------|------------------|----------------------|
--1-------------------|-------1----2----4----|-(4)--------------|--1-------------------|
-------3----1----1----|--3-------------------|------------------|-------3----1----1----|
----------------------|----------------------|------------------|----------------------|
----------------------|----------------------|------------------|----------------------|
----------------------|----------------------|------------------|----------------------|

----------------------|----------------------||
-------1--------------|----------------------||
--3---------3----3----|--3----1----0---------||
----------------------|-----------------3----||
----------------------|----------------------||
----------------------|----------------------|| x2


Share "Eternal" by Evanescence


TOP 10 TABS

FRESH NEW TABS

ALL ARTISTS
artist wiki

mp3bear.com
song lyrics / contact us / privacy policy / tabspace toolbar
Copyright 2004 - 2014 TabSpace.com - All Rights Reserved.
song: eternal guitar tabs by evanescence

0.024