:: Guitar & Bass Tabs Make Home Page
A B C D E F G H I J K L M N O P Q R S T U V W X Y Z #

  for    

On TABSPACE
Info About This Tab
Artist: Evanescence
Tab Type: Guitar
Rate This Tab!
Even in Death (Acoustic Version)
By Evanescence


many people have been asking me for this tab so.. here is it xD
i think is a 100% correct (: .. also u can check out my video
for this song on www.youtube.com/watch?v=O_Whvx52Bzw


  INTRO                                           VERSE 
e|-------------------------------------------------------------------------|
B|------0-------0-------0-------0-------0-------0-------0-------0-------0--|
G|----------------------------------------------------4--------------------|
D|----2---2---2---2---2---2---2---2---2---2---2-----2-----2---2---2---2----|
A|----------1-------2---------------1-------2---------------1-------2------|
E|--0-----------------------0---------------------0------------------------|


e|-------------------------------------------------------------------------|
B|------0-------0-------0-------0-------0-------0-----0-------0-------0----|
G|-------------------------------------------------------------------------|
D|----2---2---2---2---2---2---2---2---2---2---2-----2---2---2---2---2------|
A|----------1-------2---------------1-------2-------------1-------2--------|
E|--0---------------------------------------------0------------------------|


e|-------------------------------------------------------------------------|
B|--------0-------0-------0-----0-------0-------0-----0-------0-------0----|
G|------4------------------------------------------------------------------|
D|----2-----2---2---2---2-----2---2---2---2---2----2----2---2---2---2------|
A|------------1-------2-------------1-------2-------------1-------2--------|
E|--0-----------------------0---------------------0-0----------------------|


e|-------------------------------------------------------------------------|
B|------0-------0-------0---------0-------0-------0-----0-------0-------0--|
G|------------------------------4------------------------------------------|
D|----2---2---2---2---2---2---2-----2---2---2---2-----2---2---2---2---0----|
A|----------1-------2-----------------1-------2-------------1-------2------|
E|--0-----------------------0-----------------------0----------------------|


                                                  PRE-CHORUS
e|------------------------------------------------0--3--2--2---------------|
B|--------0-------0-------0-----0-------0---------1--3--3--0---------------|
G|------4-----------------------------------------2--0--2--2---------------|
D|----2-----2---2---2---2-----2---2---2---2---2---2--0--0--1---------------|
A|------------1-------2-------------1-------2-----0--2--0--2---------------|
E|--0-----------------------0---------------------0--3--x--0---------------|
                                                  Am G  D  B7

    CHORUS
e|--0--2--0--2--0--2--0--2-------------------------------------------------|
B|--0--3--1--0--0--3--1--0-----0-------0-------0-----0-------0-------0-----|
G|--0--2--0--2--0--2--0--2-------------------------------------------------|
D|--2--0--2--1--2--0--2--1---2---2---2---2---2-----2---2---2---2---2-------|
A|--2--0--3--2--2--0--3--2---2-----1-------2-------------1-------2---------|
E|--0--X--X--0--0--X--X--0---0-------------------0-------------------------|
    Em D  C  B7 Em D  C  B7


e|-------------------------------------------------------------------------|	
B|------0-----0-------0-----0-----0-------0-------0-------0-------0--------|
G|----------------------------------------------4--------------------------|
D|----------2---2---2-----2-----2---2---2-----2-----2---2---2---2----------|
A|---2----1-------2-----------1-------2---------------1-------2------------|
E|--0-0-----------------0-------------------0------------------------------|



e|------------------------------0------------------------------------------|
B|--------------0-------0-----0---------0-------0-------------0------------|
G|------0---------------------------------------------0--------------------|
D|----2---2---2---2---2-----2-----2---2---2---2-----2---2---2---2---2------|
A|----------1-------2---------------1-------2-------------1-------2--------|
E|--0---------------------0-----------------------0------------------------|




    PRE-CHORUS    CHORUS                    OUTRO 
e|--0--3--2--2----0--2--0--2--0--2--0--2----0--3--2--2---------------|
B|--1--3--3--0----0--3--1--0--0--3--1--0----2--3--3--0---------------|
G|--2--0--2--2----0--2--0--2--0--2--0--2----0--0--2--2---------------|
D|--2--0--0--1----2--0--2--1--2--0--2--1----2--0--0--1---------------|
A|--0--2--0--2----2--0--3--2--2--0--3--2----3--2--0--2-----1--2--2---|
E|--0--3--x--0----0--X--X--0--0--X--X--0----0--3--X--0---0-------0---|
    Am G  D  B7   Em D  C  B7 Em D  C  B7   C9 G  D  B7            END




Share "Even In Death Acoustic" by Evanescence


TOP 10 TABS

FRESH NEW TABS

ALL ARTISTS
artist wiki

mp3bear.com
song lyrics / contact us / privacy policy / tabspace toolbar
Copyright 2004 - 2014 TabSpace.com - All Rights Reserved.
song: even in death acoustic guitar tabs by evanescence

0.01