:: Guitar & Bass Tabs Make Home Page
A B C D E F G H I J K L M N O P Q R S T U V W X Y Z #

  for    

On TABSPACE
Info About This Tab
Artist: Evanescence
Tab Type: Guitar
Rate This Tab!
Evanscence - Even in death (live @ Rock am Ring 2003) 
Tunning: DADGBe 
 
Intro: Bass Line, no guitar, some effects 
 
Variations notes 
 
G|--------|---------| 
D|--------|---------| 
A|--------|---------| 
D|--0-2-3-|-0-0-6-7-| 
 
Guitar part (Ben): 
 
"...they took you away from me, but now I'll taken you home..." 
 
e|-------------------------------------| 
B|-------------------------------------| 
G|-------------------------------------| 
D|-------------------------------------| 
A|--(5)-------(3)-------(5)-----7-7-8-7| 
D|-5----575--3----3/5--5----5/7--------| 
 
[Chorus] Distorted guitar 
 
e|--------------------|----------------| 
B|--------------------|----------------| 
G|-7---5---3---2------|-7---5---3---2--| 
D|-7---5---3---2-(3)--|-7---5---3---2--| 
A|-5---3---1---0-(4)--|-5---3---1---0--| 
D|--------------------|----------------| 
 
 
Back to Intro (bass Line) 
 
 
Guitar (Ben): 
 
[Chorus] part 2. "...and I can love you..." 
 
e|--------------------|----------------|------------------------| 
B|--------------------|----------------|------------------------| 
G|-7---5---3---2------|-7---5---3---2--|-3----------------------| 
D|-7---5---3---2-(3)--|-7---5---3---2--|-3---3---5--------------| 
A|-5---3---1---0-(4)--|-5---3---1---0--|-1---3---5---(6)-7/8-7--| 
D|--------------------|----------------|-----3---5---(6)--------| 
 
 
 
Solo (Ben): 
 
 
e|--------------------------------------------------------------------|
B|--------------------------------------------------------------------|
G|--------------------------------------------------------------------|
D|-------7--------------7----------------5--------7----------------7--|
A|-5-7-8---8-7-5-5--7-8---8-7-5-7--5-7-8----5-7-8---8-7-5-5--7-8-7----|
D|--------------------------------------------------------------------|
 
 
Outro (2 guitars): 3x 
 
e|-----------------------------|
B|-----------------------------|
G|-----------------------------|
D|-0-0-7-8-7-5p7--0-0-7-8-7-5--|
A|-0-0-7-8-7-5p7--0-0-7-8-7-5--|
D|-0-0-7-8-7-5p7--0-0-7-8-7-5--|
 
 
Solo 2 (Ben): (distorted with wha) 
 
e|-------------------------------------------------------------------------|
B|-------------------------------------------------------------------------|
G|-------------------------------------------------------------------------|
D|-7-----------5---------------5-------------7-7--7-5-7-5----5-------------|
A|---8-7-5-7-8---8-7-7-7p8-7-8---7-8-7/8-7-8---------------8---8-7-8-7-5-3-|
D|-------------------------------------------------------------------------|
 
e|--------------------------------------------------------------------------------------------|
B|--------------------------------------------------------------------------------------------|
G|--------------------------------------------------------------------------------------------|
D|------------------5-5-5-------------------5-5-5-7-7-7-5-5-5-7-7-7-8-8-8-7-7-7-8-8-8-10-10-10|
A|5-5-5-7-7-7-8-8-8-------8-8-8-7-7-7-8-8-8---------------------------------------------------|
D|--------------------------------------------------------------------------------------------|
 
"...and I can love you..."  
e|-------------------------|------------------------------------------------| 
B|-------------------------|-6-6-11-10-8-6---6-8-8-6-8-10-(10/11/10/11/10)--| 
G|-------------------------|---------------5--------------------------------| 
D|-------------7-9-7-6-6/7-|------------------------------------------------| 
A|-8-8-8-10-10-------------|------------------------------------------------| 
D|-------------------------|------------------------------------------------| 
  
 
[Chorus] part 1. and 2. 
 
end 
 
e|---| 
B|---| 
G|---| 
D|-0-| 
A|-0-| 
D|-0-| 
 
Notation 
 
h - hammer on 
p - pull off 
b - bend string up 
r - release bend 
/ - slide up 
\ - slide down 
v - vibrato (sometimes written as ~) 
t - right hand tap 
x - play 'note' with heavy damping 
 
Comments/ corrections welcome (romanocarelli@bol.com.br) 
Enjoy it!


Share "Even In Death" by Evanescence


TOP 10 TABS

FRESH NEW TABS

ALL ARTISTS
artist wiki

mp3bear.com
song lyrics / contact us / privacy policy / tabspace toolbar
Copyright 2004 - 2014 TabSpace.com - All Rights Reserved.
song: even in death guitar tabs by evanescence

0.007