:: Guitar & Bass Tabs Make Home Page
A B C D E F G H I J K L M N O P Q R S T U V W X Y Z #

  for    

On TABSPACE
Info About This Tab
Artist: Misc Television
Tab Type: Guitar
Rate This Tab!
In the episode "The Man with 2 Brians" New Brian wakes Peter and Lois
up with that cliched morning wake up song played on a flute. You know the one you always 
in cartoons right after the rooster crows? Classic.=)

  e|--------------------------------------------------|
  B|---11------------------11-------------------------|
  G|------12-10----10-12------12-10----10h12p10h12----|
  D|------------13------------------13----------------|
  A|--------------------------------------------------|
  E|--------------------------------------------------|

  e|--------------------------------------------|
  B|-11----11-13----13-11-----------------------|
  G|----12-------12-------12-10-----------------|
  D|----------------------------13--------------|
  A|--------------------------------------------|
  E|--------------------------------------------|


Share "Family Guy - New Brian" by Misc Television


TOP 10 TABS

FRESH NEW TABS

ALL ARTISTS
artist wiki

mp3bear.com
song lyrics / contact us / privacy policy / tabspace toolbar
Copyright 2004 - 2014 TabSpace.com - All Rights Reserved.
song: family guy - new brian guitar tabs by misc television

0.007