:: Guitar & Bass Tabs Make Home Page
A B C D E F G H I J K L M N O P Q R S T U V W X Y Z #

  for    

On TABSPACE
Info About This Tab
Artist: 88 Fingers Louie
Tab Type: Guitar
Rate This Tab!
-------------------------------------------------------------------------------
		        FAMILY RESEMBLANCE - 88 Fingers Louie
-------------------------------------------------------------------------------

Tabbed by: strungout777
Email: manuel_ramones4life@gmx.at 



Intro:
e|---------------------------------------------------------------------------|
B|---------------------------------------------------------------------------|
G|---------------------------------------------------------------------------|
D|-79---xxx-5555555-7777777--------------------------------------------------|
A|-79---xxx-5555555-7777777-5-4-0--------------------------------------------|
E|-57---xxx-3333333-5555555--------------------------------------------------|

Verse1:
e|---------------------------------------------------------------------------|
B|---------------------------------------------------------------------------|
G|---------------------------------------------------------------------------|
D|-9999999799999-99-77-5555555-7777777---------------------------------------|
A|-9999999799999-99-77-5555555-7777777-5-4-0---------------------------------|
E|-7777777577777-77-55-3333333-5555555---------------------------------------|

e|---------------------------------------------------------------------------|
B|---------------------------------------------------------------------------|
G|---------------------------------------------------------------------------|
D|-999999999799999-7-5555555-7777777-----------------------------------------|
A|-999999999799999-7-5555555-7777777-5-4-0-----------------------------------|
E|-777777777577777-5-3333333-5555555-----------------------------------------|

Chorus1:
e|---------------------------------------------------------------------------|
B|---------------------------------------------------------------------------|
G|---------------------------------------------------------------------------|
D|-999-7-12-11--999-12-11-7--999-7-12-11--777777-----------------------------|
A|-999-7-12-11--999-12-11-7--999-7-12-11--777777-----------------------------|
E|-777-5-10--9--777-10--9-5--777-5-10--9--555555-----------------------------|

e|---------------------------------------------------------------------------|
B|---------------------------------------------------------------------------|
G|---------------------------------------------------------------------------|
D|-x99-7-12-11--999-12-11-7--999-7-12-11--777-1212-1111----------------------|
A|-x99-7-12-11--999-12-11-7--999-7-12-11--777-1212-1111----------------------|
E|-x77-5-10--9--777-10--9-5--777-5-10--9--555-1010--9-9----------------------|

Verse2:
e|---------------------------------------------------------------------------|
B|---------------------------------------------------------------------------|
G|---------------------------------------------------------------------------|
D|-999999999799999-7-5555555-7777777-----------------------------------------|
A|-999999999799999-7-5555555-7777777-5-4-0-----------------------------------|
E|-777777777577777-5-3333333-5555555-----------------------------------------|

e|---------------------------------------------------------------------------|
B|---------------------------------------------------------------------------|
G|---------------------------------------------------------------------------|
D|-999999999799999---5555555-7777777-----------------------------------------|
A|-999999999799999---5555555-7777777-5-4-0-----------------------------------|
E|-777777777577777---3333333-5555555-----------------------------------------|

Chorus2:
e|---------------------------------------------------------------------------|
B|---------------------------------------------------------------------------|
G|---------------------------------------------------------------------------|
D|-999-7-12-11--999-12-11-7--999-7-12-11--777777-----------------------------|
A|-999-7-12-11--999-12-11-7--999-7-12-11--777777-----------------------------|
E|-777-5-10--9--777-10--9-5--777-5-10--9--555555-----------------------------|

e|---------------------------------------------------------------------------|
B|---------------------------------------------------------------------------|
G|---------------------------------------------------------------------------|
D|-x99-7-12-11--999-12-11-7--999-7-12-11--777-1212-1111----------------------|
A|-x99-7-12-11--999-12-11-7--999-7-12-11--777-1212-1111----------------------|
E|-x77-5-10--9--777-10--9-5--777-5-10--9--555-1010--9-9----------------------|

Bridge1:
e|---------------------------------------------------------------------------|
B|---------------------------------------------------------------------------|
G|---------------------------------------------------------------------------|
D|-9999-9-9999-97/9-99-9-9999-9-5555-5-5555-5-7777-7-7777----55----77--------|
A|-9999-9-9999-97/9-99-9-9999-9-5555-5-5555-5-7777-7-7777450-55450-77450-----|
E|-7777-7-7777-75/7-77-7-7777-7-3333-3-3333-3-5555-5-5555----33----55--------|
   xxxx   xxxx      xx   xxxx   xxxx   xxxx   xxxx   xxxx
e|---------------------------------------------------------------------------|
B|---------------------------------------------------------------------------|
G|---------------------------------------------------------------------------|
D|-999999999799999999-2-2-2222-2-5-5-4-4-------------------------------------|
A|-999999999799999999-2-2-2222-2-5-5-4-4-------------------------------------|
E|-777777777577777777-0-0-0000-0-3-3-2-2-------------------------------------|

Verse3:
e|---------------------------------------------------------------------------|
B|---------------------------------------------------------------------------|
G|---------------------------------------------------------------------------|
D|-999999997999999-7-5555555-7777777-----------------------------------------|
A|-999999997999999-7-5555555-7777777-5-4-0-----------------------------------|
E|-777777775777777-5-3333333-5555555-----------------------------------------|

Bridge2:
e|---------------------------------------------------------------------------|
B|---------------------------------------------------------------------------|
G|---------------------------------------------------------------------------|
D|-9------79------5-------7--------------------------------------------------|
A|-9------79------5-------7--------------------------------------------------|
E|-7------57------3-------5--------------------------------------------------|

Chorus3:
e|---------------------------------------------------------------------------|
B|---------------------------------------------------------------------------|
G|---------------------------------------------------------------------------|
D|-999-7-12-11--999-12-11-7--999-7-12-11--777777-----------------------------|
A|-999-7-12-11--999-12-11-7--999-7-12-11--777777-----------------------------|
E|-777-5-10--9--777-10--9-5--777-5-10--9--555555-----------------------------|

e|---------------------------------------------------------------------------|
B|---------------------------------------------------------------------------|
G|---------------------------------------------------------------------------|
D|-x99-7-12-11--999-12-11-7--999-7-12-11--999999-1212-9~---------------------|
A|-x99-7-12-11--999-12-11-7--999-7-12-11--999999-1212-9~---------------------|
E|-x77-5-10--9--777-10--9-5--777-5-10--9--777777-1010-7~---------------------|

Solo:
e|---------------------------------------------------------------------------|
B|---------------------------------------------------------------------------|
G|---------------------------------------------------------------------------|
D|-4~------------------------------------------------------------------------|
A|---5p4p2-5p4p2-5p4p2-5p4p2-5p4p2-5p4p2-5p4p2-5p4p2-5p4p2-5p4p2-5p4p2-5p4p2-|
E|---------------------------------------------------------------------------|

e|---------------------------------------------------------------------------|
B|---------------------3~-5~------3-5-----3-5--------------------------------|
G|---------------2~-4~-------2-4------2-4-----2-4~---------------------------|
D|-5-4-2--5-4-2--------------------------------------------------------------|
A|------------------------------------------------5p4p2-5p4p2-5p4p2-5p4p2----|
E|---------------------------------------------------------------------------|

e|---------------------------------------------------------------------------|
B|---------------------------------------------------------------------------|
G|-------------------------------2~-4-2-4~-----------------------------------|
D|-------------------------2~-4~---------------------------------------------|
A|-5p4p2-5p4p2-5p4p2-5p4p2---------------------------------------------------|
E|---------------------------------------------------------------------------|



| /  slide up
| \  slide down
| h  hammer-on
| p  pull-off
| ~  vibrato
| +  harmonic
| x  Mute note
===============================================================================


Share "Family Resemblance" by 88 Fingers Louie


TOP 10 TABS

FRESH NEW TABS

ALL ARTISTS
artist wiki

mp3bear.com
song lyrics / contact us / privacy policy / tabspace toolbar
Copyright 2004 - 2014 TabSpace.com - All Rights Reserved.
song: family resemblance guitar tabs by 88 fingers louie

0.02