:: Guitar & Bass Tabs Make Home Page
A B C D E F G H I J K L M N O P Q R S T U V W X Y Z #

  for    

On TABSPACE
Info About This Tab
Artist: Hard-fi
Tab Type: Guitar
Rate This Tab!
-------------------------------------------------------------------------
			     Hard-Fi - Feltham Is Singing Out
-------------------------------------------------------------------------
Tabbed by:Kev				
Email:talk_tonight100@yahoo.co.uk

Tuning:E A D G B e


  INTRO and VERSES

e|---------------|-----------------------|------------------------------|
B|---------------|-----------------------|-----8-------8------8---------|
G|---------------|-----------------------|---9---9---9---9--9---9-------|
D|--2-----2-2-2--|-repeat-over and over--|------------------------------|
A|--2-----2-2-2--|-----------------------|-with this over the top-------|
E|--0-----0-0-0--|-----------------------|------------------------------|



   Bridge (pre chorus)
e|----------------------|-----------------------------------------------|
B|----------------------|-----------------------------------------------|
G|---5-5-5-5------------|-----------------------------------------------|
D|---5-5-5-5---7-7-7-7--|-----------------------------------------------|
A|---3-3-3-3---7-7-7-7--|-----------------------------------------------|
E|-------------5-5-5-5--|-----------------------------------------------|
     palm muted 
   
    a sickness i cant see, oh no no no



  CHORUS

e|----------------------------------------------------------------------|
B|----------------------------------------------------------------------|
G|----------5-5-5-------------------------4 times ----------------------|
D|--2-2-2---5-5-5---5-5-5---7-7-7---------------------------------------|
A|--2-2-2---3-3-3---5-5-5---7-7-7---------------------------------------|
E|--0-0-0-----------3-3-3---5-5-5---------------------------------------|

feltham is singing out!!!!!


   Chorus 2

e|---------------------------------|------------------------------------|
B|--------3-3---5-5---7-7----------|------------------------------------|
G|--------4-4---5-5---7-7--4 times-|---5------------7-------------------|
D|--5-5---4-4---5-5---7-7----------|---5-let ring---7--let ring---------|
A|--5-5---2-2---3-3---5-5----------|---3------------5-------------------|
E|--3-3----------------------------|------------------------------------|


every day i see your face.........           living hell




   Then it playS the Chorus with no lyrics 

     but theres a part thaT GOES OVER THE CHORDS

e|----------------------------------------------------------------------|
B|---13--12-12-12-12---13--12-12-12-12----------------------------------|
G|----------------------------------------------------------------------|
D|----------------------------------------------------------------------|
A|----------------------------------------------------------------------|
E|----------------------------------------------------------------------|

THATS ABOUT IT, IF ANY ONE WANTS MORE HARD-FI TABS, MAIL ME. THANX


Share "Feltham Is Singing Out" by Hard-fi


TOP 10 TABS

FRESH NEW TABS

ALL ARTISTS
artist wiki

mp3bear.com
song lyrics / contact us / privacy policy / tabspace toolbar
Copyright 2004 - 2014 TabSpace.com - All Rights Reserved.
song: feltham is singing out guitar tabs by hard-fi

0.008