:: Guitar & Bass Tabs Make Home Page
A B C D E F G H I J K L M N O P Q R S T U V W X Y Z #

  for    

On TABSPACE
Info About This Tab
Artist: Jaya The Cat
Tab Type: Bass
Difficulty: novice
Rate This Tab!
Bass tab of the song: Final Solution.
One of the louder songs of Jaya.

The parts between '' are the vocals.

(Standard Tuning for this)


Intro

G|----------------------------------------------------------------------------|
D|----------------------------------------------------------------------------|
A|-4-0---4-0---4-0---4-0---4--------------------------------------------------|
E|-----4-----4-----4-----4----------------------------------------------------|


Verse
''Lock down, final solution''
''The lives of the many, decided by the few''
''Gotta be a better way but i don't see it''
''Ain't no-one free in this so called war for freedom''
G|----------------------------------------------------------------------------|
D|----------------------------------------------------------------------------|
A|-4-0---4-0---4-0---4-0------------------------------------------------------|
E|-----4-----4-----4-----4----------------------------------------------------|

''The two by the unknown soldier lies acky''
''The sacraficial lands are trained and ready''
''And in the, business district the drums of war''
''?????????, shake the damn floor!''
G|-------------------------------------------------------------------------------|
D|-------2---2---2---------2---2---2---------2---2---2---------2---2---2---------|
A|-----4---4---0-----6---4---4---0-----6---4---4---0-----6---4---4---0-----6-----|
E|-----------------4-----------------4-----------------4-----------------4-------|



Chorus (Play this 2 times)

''Woowoow, when we go wrong''
''Woowoow, when WE go wrong''
G|----------------------------------------------------------------------------|
D|----------------------------------------------------------------------------|
A|-4-0---4-0---4-0---4-0------------------------------------------------------|
E|-----4-----4-----4-----4----------------------------------------------------|



Second Verse

G|----------------------------------------------------------------------------|
D|----------------------------------------------------------------------------|
A|-4444-0---4444-0---4444-0---4444-0---4--------------------------------------|
E|--------4--------4--------4--------4----------------------------------------|

G|----------------------------------------------------------------------------|
D|----------------------------------------------------------------------------|
A|-4-0---4-0---4-0---4-0------------------------------------------------------|
E|-----4-----4-----4-----4----------------------------------------------------|

G|-------------------------------------------------------------------------------|
D|-------2---2---2---------2---2---2---------2---2---2---------2---2---2---------|
A|-----4---4---0-----6---4---4---0-----6---4---4---0-----6---4---4---0-----6-----|
E|-----------------4-----------------4-----------------4-----------------4-------|


Chorus


Outro

''Lock the door, turn out the lights''
''When the cops come knocking better keep it quiet''
''And a voice keeps talking in the back of my mind''
''Telling me to stop.''
G|----------------------------------------------------------------------------|
D|----------------------------------------------------------------------------|
A|-4444-0---4444-0---4444-0---4-----------------------------------------------|
E|--------4--------4--------4-------------------------------------------------|

''And as i may be down to sleep''
''I pray my sanity to keep''
''And if i die before i wake''
''Maybe thats a better way''
G|----------------------------------------------------------------------------|
D|----------------------------------------------------------------------------|
A|-4444-0---4444-0---4444-0---4444-0------------------------------------------|
E|--------4--------4--------4-------------------------------------------------|


Have fun, try to play along while the song is playing :).



Share "Final Solution" by Jaya The Cat


TOP 10 TABS

FRESH NEW TABS

ALL ARTISTS
artist wiki

mp3bear.com
TabSpace.com / contact us / privacy policy / tabspace toolbar
Copyright 2004 - 2016 TabSpace.com - All Rights Reserved.
song: final solution bass tabs by jaya the cat

0.002