:: Guitar & Bass Tabs Make Home Page
A B C D E F G H I J K L M N O P Q R S T U V W X Y Z #

  for    

On TABSPACE
Info About This Tab
Artist: Misc Television
Tab Type: Guitar
Difficulty: intermediate
Rate This Tab!
                         Ballad of Serenity                                
Sonny Rhodes
Acoustic Guitar (steel)
Standard Tuning

  
E||-------------------------|
B||-------------------------|
G||-------------------------|
D||-------------------------|
A||---------------0--3-0----|
E||-----------0-3--------3--|


  "Take my love, Take my land.."                          
  
------------------------------------0----0---------------|
---------------------------------------------3----3----3-|
---------------------------------------------------------|
---------------------------------2-----2-------0-----0---|
--0---------------------------------0--------------------|
-------------------------------------------3------3------|


    
-----------0---------------|
----3----3------3--1--0----|
----------------2-----0----|
------0------0--2-----2----|
----------------0-----2----|
--2------2------------0----|


           "I don't care, I'm Still Free.."               

---------------------------------------------------------|
--L--------0--------------------------------1-------1----|
--L-------------------------------------------0----------|
--L---------------------------------------------2-----2--|
--L--------3--------------------------------------3------|
--L------------------------------------------------------|


       
--0------------------------0--|---------------------|
----3---3-------3-3---3-------|--3--2--0------------|
------------------------------|--2-----0------------|
------0------0------0------0--|--2-----2------------|
------------------------------|--0-----2------------|
--3-------3-----2-------2-----|--------0------------|


  "Take me out, To the Black.."                                

--0-----------------------------0---0---------0---------------|
----------------------------------------1-------3---3---------|
------------------------------------------2-------------0---0-|
----------------------------------2---------2-----0-------0---|
--0-----------------------------------0-----------------------|
----------------------------------------------3-------3-------|


                                       "Burn the Land.."                

-------------0-------------|-------------------------------------------|
--3-3---3-------3--1--0----|--L--------0-----------------1-------1-----|
----------------2-----0----|--L----------------------------0---------0-|
------0------0--2-----2----|--L------------------------------2-----2---|
----------------0-----2----|--L--------3-----------------------3-------|
--2-------2-----------0----|--L----------------------------------------|


                  "You can't take the sky from me"              

--0---------------------------------------------------------0--|
----3---3---------3--------------------------------3---3-------|
------------0---0----------------------------------------------|
------0-------0--------------------------------------0------0--|
---------------------------------------------------------------|
--3-------3-------2--------------------------------------2-----|


 
---------------------|-------0---------3-0-------3-----|
--3--2--0------------|--1--------1-----------1-------1-|
--2-----0------------|---------------0-----------------|
--2-----2------------|-----2-------2-------2-------2---|
--0-----2------------|--3------3-------3-------3-------|
--------0------------|---------------------------------|


  
-----3--------------------------|----------0-----0-2---2---0----|
----------0-1-1-1-0---0---0-----|-----3--------3-------------3--|
----------0-------------------0-|-----2------2-------2-------2--|
-----0------0-------0-------0---|--0-----0-------0-------0------|
--------------------------------|-------------------------------|
--3-----3-------3-------3-------|-------------------------------|


  "Have no place, I can be.."                                

------------------------------0---0---------0---------------|
--1-----------------------------------1-------3---3-------3-|
------------------------------------------2-----------0-----|
--------------------------------2-------2-------0-------0---|
--0---------------------------------0-----------------------|
--------------------------------------------3-------3-------|


  "Since I found Serenity"                         
  
------------------------------------0-------------|
--3------------------------3---3-------3--1--0----|
---------------------------------------2-----0----|
-----------------------------0------0--2-----2----|
---------------------------------------0-----2----|
--2------------------------------2-----------0----|


           "But you can't take the sky from me"               

-------------------------------------------------------------|
--L--------0------------------------------------1-------1----|
--L-----------------------------------------------0----------|
--L-------------------------------------------------2-----2--|
--L--------3------------------------------------------3------|
--L----------------------------------------------------------|


             
--0----------------------|-------------------||
----3----3---------------|-------------------||
--------------------0----|--L----------------||
------0------------------|-------------------||
--------------------3----|--L----------------||
--3------3----3\---------|-------------------||

Tablature Legend
----------------
L - tied note (Hold Last note and let it ring out)
\ -  slide into from above or out of downwards



Share "Firefly Theme" by Misc Television


TOP 10 TABS

FRESH NEW TABS

ALL ARTISTS
artist wiki

mp3bear.com
song lyrics / contact us / privacy policy / tabspace toolbar
Copyright 2004 - 2014 TabSpace.com - All Rights Reserved.
song: firefly theme guitar tabs by misc television

0.003