:: Guitar & Bass Tabs Make Home Page
A B C D E F G H I J K L M N O P Q R S T U V W X Y Z #

  for    

On TABSPACE
Info About This Tab
Artist: Xandria
Tab Type: Guitar
Rate This Tab!
-------------------------------------------------------------------------------
			Firestorm - Xandria     
-------------------------------------------------------------------------------
Tabbed by: Sanjeev George and Thomas George
Email: SanjeevGeorge123@yahoo.co.in


Tuning: Drop D

Intro
e|----------------------------------------------------------|
B|----------------------------------------------------------|
G|----------------------------------------------------------|
D|----7---5-5-7\----5----5----7---5-7-5-7\----5----5~-------|
A|----7---5-5-7\----3----5----7---5-7-5-7\----3----5~-------|
D|----7---5-5-7\---------5----7---5-7-5-7\---------5~-------|
                       
e|--------------------------------------------------------------------|
B|--------------------------------------------------------------------|
G|--------------------------------------------------------------------|
D|----7---5-5-7---7-7-3---5-5-2~-----7---5-5-7---7-7-3---5-5-2--2~----|
A|----7---5-5-7---7-7-3---5-5-2~-----7---5-5-7---7-7-3---5-5-2--2~----|
D|----7---5-5-7---7-7-3---5-5-2~-----7---5-5-7---7-7-3---5-5-2--2~----|

Verse 1 (Have you ever been inside a flame……)
Guitar 1
e|---------------------------------------------------------------------------|
B|---------------------------------------------------------------------------|
G|---------------------------------------------------------------------------|
D|---0-0--0-0--0-0--0-0--00-0---0-3-3--3-3--0-5-55--55-5---------------------|x 4
A|---0-0--0-0--0-0--0-0--00-0---0-3-3--3-3--0-5-55--55-5---------------------|
D|---0-0--0-0--0-0--0-0--00-0---0-3-3--3-3--0-5-55--55-5---------------------|
       .    .    .    .  pm    pm   .    . pm . ..  ..

Guitar 2
e|---------------------------------------------------------------------------|
B|---------------------------------------------------------------------------|
G|---------------------------------------------------------------------------|
D|---0-0--0-0--0-0--0-0--00-3+--0-3-3--3-3--0-5-55--55-5---------------------|x 4
A|---0-0--0-0--0-0--0-0--00-----0-3-3--3-3--0-5-55--55-5---------------------|
D|---0-0--0-0--0-0--0-0--00-----0-3-3--3-3--0-5-55--55-5---------------------|
       .    .    .    .  pm    pm   .    . pm . ..  ..


Pre chorus (both guitars) (Close to the flame……)
e|--------------------------------------------------------------------|
B|--------------------------------------------------------------------|
G|--------------------------------------------------------------------|
D|----7---5-5-7\----5----5----7---5-7-5-7-----5----5----222222222-----|
A|----7---5-5-7\----3----5----7---5-7-5-7-----3----5----222222222-----|
D|----7---5-5-7\---------5----7---5-7-5-7----------5----222222222-----|

Chorus (Both guitars)(Into the Firestorm………….)
e|-----------------------------------------|
B|-----------------------------------------|
G|-----------------------------------------|
D|----5h7-77--5-5-7\----7-7-3---5-5-2~-----|x2
A|----5h7-77--5-5-7\----7-7-3---5-5-2~-----|
D|----5h7-77--5-5-7\----7-7-3---5-5-2~-----|

Verse 2 (there’s no need to be afraid………..)
Guitar 1
e|---------------------------------------------------------------------------|
B|---------------------------------------------------------------------------|
G|---------------------------------------------------------------------------|
D|---0-0--0-0--0-0--0-0--00-0---0-3-3--3-3--0-5-55--55-5---------------------|x 2
A|---0-0--0-0--0-0--0-0--00-0---0-3-3--3-3--0-5-55--55-5---------------------|
D|---0-0--0-0--0-0--0-0--00-0---0-3-3--3-3--0-5-55--55-5---------------------|
       .    .    .    .  pm    pm   .    . pm . ..  ..

Guitar 2
e|---------------------------------------------------------------------------|
B|---------------------------------------------------------------------------|
G|---------------------------------------------------------------------------|
D|---0-0--0-0--0-0--0-0--00-3+--0-3-3--3-3--0-5-55--55-5---------------------|x 2
A|---0-0--0-0--0-0--0-0--00-----0-3-3--3-3--0-5-55--55-5---------------------|
D|---0-0--0-0--0-0--0-0--00-----0-3-3--3-3--0-5-55--55-5---------------------|
       .    .    .    .  pm    pm   .    . pm . ..  ..


(Both guitars)(Let me walk with you…….)
e|----------------------------------------|
B|----------------------------------------|
G|----------------------------------------|x 2
D|--0000000000000000-33333333-55555555----|
A|--0000000000000000-33333333-55555555----|
D|--0000000000000000-33333333-55555555----|
    |_____Palm Muted_________________|

Pre Chorus again

Chorus 2nd time (both guitars)
e|----------------------------------------|
B|----------------------------------------|
G|----------------------------------------|
D|----5h7-77--5-5-7\---7-7-3---5-5-2~-----|x2
A|----5h7-77--5-5-7\---7-7-3---5-5-2~-----|
D|----5h7-77--5-5-7\---7-7-3---5-5-2~-----|

e|---------|
B|---------|
G|---------|
D|---0~----|
A|---0~----|
E|---0~----|

Bridge
Guitar 1
e|-----------------------|
B|---------4-----3v------|
G|----2------------------|keep playing
D|--0---3-----3----------|
A|-----------------------|
D|-----------------------|

Guitar 2 joining later
e|-----------------------------------------------------|
B|-----------------------------------------------------|
G|-----------------------------------------------------|
D|----7-7-7--7-7-7---7-7-7--8-8-8--8-8-8---8-8-8-------|x 2
A|----5-5-5--5-5-5---5-5-5--5-5-5--5-5-5---5-5-5-------|
D|-----------------0---------------------0-------------|
          .      .       .      .      .       .

e|--------------------------------------------------------|
B|--------------------------------------------------------|
G|--------------------------------------------------------|
D|----7-7-7--7-7-7---7-7-7--8-8-8--8-8-8---8-8-8--0-0-0---|
A|----5-5-5--5-5-5---5-5-5--5-5-5--5-5-5---5-5-5--0-0-0---|
D|-----------------0---------------------0--------0-0-0---|
          .      .       .      .      .       . |__pm_|

e|---------------------------------|
B|---------------------------------|
G|---------------------------------|x 2
D|----7-7-7--7-7-7---7-7-7---------|
A|----5-5-5--5-5-5---5-5-5---------|
D|-----------------0---------------|
          .      .       .
e|---------------------------------|
B|---------------------------------|
G|---------------------------------|
D|------7-7---7-7----7-7-7---------|
A|------5-5—--5-5----5-5-5---------|
D|--0-0-----0------0---------------|
    . .     .      . 

Then only guitar 2
e|---------------------------------------------------------------------------|
B|---------------------------------------------------------------------------|
G|---------------------------------------------------------------------------|
D|---------------------------------------------------------------------------|x 4
A|--------6---5-----6--5-5v---------------6---5-----6v--5-5---1-0------------|
D|----0-0---0---0-0----------8-8-7v---0-0---0---0-0---------------3-2v-------|
      Pm   pm   pm                    pm   pm    pm

Guitar 1 joins after guitar 2 plays the above twice
e|-----------------------------------------------|
B|-----------------------------------------------|
G|-----------------------------------------------|
D|----000000000-000000000-000000000-000000000----|
A|----000000000-000000000-000000000-000000000----|
D|----000000000-000000000-000000000-000000000----|

Both guitars (I WILL ?BITE YOU!!!!)
e|-----------------------------------------------|
B|-----------------------------------------------|
G|-----------------------------------------------|
D|----000000000-000000000-000000000-000000000----|
A|----000000000-000000000-000000000-000000000----|
D|----000000000-000000000-000000000-000000000----|
      |______________Palm Muted_____________|

Then back to arpeggio on guitar 1

For Verse 3 guitars join in after a while (Yesterday I had a flaming dream…)
e|-------------------------------------------|
B|-------------------------------------------|
G|-------------------------------------------|x 2
D|-----0000000000000000-33333333-55555555----|
A|-----0000000000000000-33333333-55555555----|
D|-----0000000000000000-33333333-55555555----|
       |______________Palm Muted________|

Back to pre chorus
Chorus till the end

e|-----------------------------------------|
B|-----------------------------------------|
G|-----------------------------------------|
D|----5h7-77--5-5-7\----7-7-3---5-5-2~-----|x 4
A|----5h7-77--5-5-7\----7-7-3---5-5-2~-----|
D|----5h7-77--5-5-7\----7-7-3---5-5-2~-----|

e|--------------------------------|
B|--------------------------------|
G|--------------------------------|
D|---2~-----7777-7777-------------|
A|---2~-----7777-7777-------------|
E|---2~-----7777-7777-------------|


| /  slide up
| \ slide down
| v  vibrato
| +  harmonic
| pm palm mute
| .  mute note with fretting finger after playing
| ~  let ring


Please rate the tab. THANKS 





Share "Firestorm" by Xandria


TOP 10 TABS

FRESH NEW TABS

ALL ARTISTS
artist wiki

mp3bear.com
song lyrics / contact us / privacy policy / tabspace toolbar
Copyright © 2004 - 2014 TabSpace.com - All Rights Reserved.
song: firestorm guitar tabs by xandria

0.032