:: Guitar & Bass Tabs Make Home Page
A B C D E F G H I J K L M N O P Q R S T U V W X Y Z #

  for    

On TABSPACE
Info About This Tab
Artist: Wasp
Tab Type: Guitar
Rate This Tab!
W.A.S.P. - Forever Free
(Blackie Lawless)
from the album "The Headless Children"
Copyright (C) 1989 Capitol Records, Inc.

Intro

E :---7-----7------7-h-8-p7-7----5-----|
B :----------------------------7---8---|
G :------------------------------------|
D :------------------------------------|
A :------------------------------------|
E :------------------------------------|

E :---3-----3--3-3-3---3---------------|
B :---3--3--3--3-3-3---3-------3---3-3-|
G :0--0--0--0----0----------0--0---0-0-|
D :0-----------------------------------|
A :------------------------------------|
E :------------------------------------|

E :--15----15-15------15---------------|
B :-----15--------------------15-------|
G :------------------------------------|
D :------------------------------------|
A :------------------------------------|
E :------------------------------------|

===============================================

E :---7-----7-------8-----8--7-----8-----8-|
B :-----------------8-----8--8-----8-----8-|
G :----------------------------------------|
D :----------------------------------------|
A :----------------------------------------|
E :----------------------------------------|

E :---3-----3--3---------------------------|
B :---3-----3--3----1-----1--------1-----1-|
G :---0-----0--0----0-----0--------0-----0-|
D :3----------------0-----0--------0-------|
A :--------------3-----------3-----------3-|
E :----------------------------------------|

E :--13-------13---15-15-15----15-15-15----|
B :-----15------------------16----------15-|
G :--------16------------------------------|
D :----------------------------------------|
A :----------------------------------------|
E :----------------------------------------|

=================================================
E :-------7-----7------7-h-8-p-7--7----5-------|
B :----------------------------------7----8---8|
G :-----------------------------------------7--|
D :--------------------------------------------|
A :--------------------------------------------|
E :--------------------------------------------|

E :-------3-----3-----------------3--3-3--3-3-3|
B :-------3-----3----3-3----------3--3-3--3-3-3|
G :-0-----0-----0----0-0----------0--0-0--0-0-0|
D :-0------------------0-----------------------|
A :--------------------------------------------|
E :--------------------------------------------|

E :15----15-15----15------15--15----15---15----|
B :---15-------15----------------15------------|
G :--------------------------------------------|
D :--------------------------------------------|
A :--------------------------------------------|
E :--------------------------------------------|

===================================================

E :---7--7--------8----8-7-----8----|
B :---------------8----8-8-----8----|
G :---------------------------------|
D :---------------------------------|
A :---------------------------------|
E :---------------------------------|

E :---------------------------------|
B :---3--3--3-----------------------|
G :---0--0--0-------0---------------|
D :3--------------3------2-----2----|
A :----------------------3-----3--0-|
E :-------------------------------0-|

E :--------------15---15---15----15-|
B :--15-15-15-15--------------15----|
G :---------------------------------|
D :---------------------------------|
A :---------------------------------|
E :---------------------------------|

=========================================================

E :---------------------|-------------------|------2---2--0-2-0|
B :3---(3)------3-3-3---|0---0--------------|(3)---3---3--3-3-3|
G :0----0-----0-0-0-0---|0---0-------0------|(2)---2---2--2-2-2|
D :0----0---0-0-----0---|2---2--0-h2----2---|(0)---0---0----0-0|
A :2----2-----------2---|2---2------------2-|-0--------0----0-0|
E :3----3-----------3-2-|0---0--------------|------------------|

E :3---3------3-----3|--------------------|----0---0----------|
B :3-3-3---3--3-3-3-3|------3---3---------|----0---0----------|
G :0---0---0----0-0-0|------0---0---------|----0---0-------0--|
D :2---2-------------|0-----0---0----0---0|----2---2--0-h2----|
A :3---3-------------|2-(2)-2---2--2---2--|----2---2----------|
E :------------------|3----------------2--|0------------------|
                      I ride all alone...


E :--------3--0-2-2--|3---3------3---3|(3)------------------|
B :--------3--3-3---3|3---3---3--3-3--|------0--------------|
G :2---2---2--2-2----|0---0---0-------|------0--------------|
D :0---0---0--0------|2---2---2-------|------0--0-------0---|
A :----0-------------|3---------------|-----------2---2-----|
E :------------------|----------------|-3-----------------2-|
                                       And shadows...


E :----0--------------|----2----2--0-2--|3-----------3---3----|
B :----0--------------|----3----3--3-3--|3---3---3-3-3-3-3-3-3|
G :----0----------0---|----2----2--2-2-2|0---0---0-0-0-0-0-0-0|
D :----2------0-----2-|0--------0-------|2---2---2-2---2---2-2|
A :--------2----2-----|-------0---------|3---3---3------------|
E :0------------------|-----------------|---------------------|

E :2-------2--0-2-0|3------------------------|2-------2--0-----3|
B :3---3---3--3-3-3|3-----3-----3-3-3-3-3----|3---3---3--3-3---3|
G :2---2---2--2-2-2|0-----0-----0-0-0-0-0-0-0|2---2---2--2-2---3|
D :----0---0--0-0-0|2-2-2-2-2-2-2-2-2-2-2-2-2|0---0---0--0-0----|
A :----0-----------|3-----3-----3-----3---3--|0---0------0---0--|
E :----------------|-------------------------|------------------|
  And there she felt...


E :3---------3---------3---3|2---2---2-0-0--2-0|3---------------|
B :3-----3-3---3-3-3-3-3-3-3|3---3---3-3-3--3-3|3---------------|
G :0-----0-----0-0-0-0-0-0-0|2---2---2-0-0--2-0|0---------------|
D :2-2-2-2-----2-2-0-2---2-0|0---0---0---------|2---------------|
A :3-----3-----3------------|0---0-------------|3---------------|
E :-------------------------|------------------|----------------|


E :----------------|-------------------|2---2---2--0-2-0|
B :3---3-------3---|0---0--------------|3---3---3--3-3-3|
G :0---0-------0---|0---0-------0------|2---2---2--2-2-2|
D :0---0-------0---|2---2--0-h2----2---|0---0---0--0-0-0|
A :2---2-------2---|2---2------------0-|0---0-----------|
E :3---3-------3---|0---0--------------|----------------|
  Wind cried...


E :3---3---3--3-3-3-|3---3------3-3---|3---0--------------|
B :3---3---3--3-3-3-|3---3------3-3---|3---0--------------|
G :0---0---0--0-0-0-|0---0------0-0---|0---0-------0------|
D :2---2---2--2-2-2-|0---0------0-0---|2---2--0-h2----2---|
A :3---3---3--3-3-3-|2---2------2-2---|2---2------------0-|
E :-----------------|3---3------3-3---|0---0--------------|

E :2---2---2--0-2--|3---3---3-3-3-3-3-3-3-3|2---2---2--0-2--|
B :3---3---3--3-3--|3---3---3-3-3-3-3-3-3-3|3---3---3--3-3--|
G :2---2---2--2-2--|0---0---0-0-0-0-0-0-0-0|2---2---2--2-2--|
D :0---0---0--0-0--|2---2---2-2-2-2-2-2-2-2|0---0---0--0-0--|
A :0---0---0----0--|3---3---3-3-3-3-3-3-3-3|0---0---0--0----|
E :----------------|-----------------------|----------------|

E :3-----3-----3-----3-----|2---2---2--0-2--|3-----3-----3-----3-----|
B :3-(3)-3-(3)-3-(3)-3-(3)-|3---3---3--3-3--|3-(3)-3-(3)-3-(3)-3-(3)-|
G :0-----0-----0-----0-----|2---2---2--2-2--|0-----0-----0-----0-----|
D :2-----2-----2-----2-----|0---0---0--0-0--|2-----2-----2-----2-----|
A :3-----3-----3-----3-----|----------------|3-----3-----3-----3-----|
E :------------------------|----------------|------------------------|

E :2-2-0-2--0-2--0-2-0-|3---------------|
B :3-3---3----3--3-3-3-|3---------------|
G :2-2---2----2--2-2-2-|0---------------|
D :0-----0----0--0-0-0-|2---------------|
A :--------------------|3---------------|
E :--------------------|----------------|

Chorus:
                                      x4
E :| 3---------------|1--1-1----------- ||----------------|
B :| 3---------------|1--1-1----------- ||0---------------|
G :|*0---------------|2--2-2-5---------*||0---------------|
D :|*0---------------|3--3-3-5---------*||2---------2-2-2-|
A :| 2---------------|3--3-3-3--------- ||2---------2-2-2-|
E :| 3---------------|1--1-1----------- ||0---------0-0-0-|
                                           free
E :----------------|
B :----------------|
G :----------------|
D :2-2-2-2-2-2-2-2-|
A :2-2-2-2-2-2-2-2-|
E :0-0-0-0-0-0-0-0-|

1st Solo
                  A.H.           ___3___
E :-------------------|----------|--|---|-|------------------------|
B :----------2-3-5-5b-|--r5---3-h5--3---2-|h3-p2-----------2-4-4---|
G :2-h4--4------------|-------------------|------4---4-2-4---------|
D :-------------------|-------------------|------------------------|
A :-------------------|-------------------|------------------------|
E :-------------------|-------------------|------------------------|

E :-------------------|-------------------|------------------------|
B :-------------------|----------3----3---|-4----4-4-4-4---4---4---|
G :0-----0---------4--|---4-4-4--2----2---|-4----4-4-4-4---4---4---|
D :2-----2---0-----2--|---2-2-2--0----0---|-2----2-2-2-2---2---2---|
A :2-----2-----2-0-2--|---2-2-2--0----0---|------------------------|
E :0-----0---------0--|---0-0-0-----------|------------------------|

========================================================================

E :-----------------------------|-------------------------|
B :3-2----------------14-16-----|(16)---16---14-15-17-17b-|
G :----4-2-4---/14-16-----------|-------------------------|
D :-----------------------------|-------------------------|
A :-----------------------------|-------------------------|
E :-----------------------------|-------------------------|

E :-----------------------------|-------------------------|
B :4---4---4-4---4-----4----3-3-|-------------------------|
G :4---4---4-4---4-----4----2-2-|--4-----2----4--4--2--4--|
D :2---2---2-2---2-----2----0-0-|--2-----2----2--2--2--2--|
A :-------------------------0-0-|--2-----2----2--2--2--2--|
E :-----------------------------|--0-----0----0--0--0--0--|

=======================================================================

E :----------17b-17---14-|17b------17b--14-h17-p14-----14-17-14----|
B :--17---15-------------|-------------------------17b----------17-|
G :----------------------|-----------------------------------------|
D :----------------------|-----------------------------------------|
A :----------------------|-----------------------------------------|
E :----------------------|-----------------------------------------|

E :----------------------|-----------------------------------------|
B :-----------3---3-3--3-|-----------------------------------------|
G :---2-------2---2-2--2-|-4----4--------------------------4-----4-|
D :---2-------0---0-0--0-|-4----4--------------------------4-----4-|
A :---2-------0---0-0--0-|-2----2--------------------------2-----2-|
E :---0------------------|-----------------------------------------|

========================================================================

   ____________3__________
   |____3___   | ____3____|    ____3____
   |    |   |  | |   |    |    |   |    |
E :14-h17-p14--|-14-h17-p14----14-h17-p17----14-------|
B :-----------14------------17------------17----17-b--|
G :---------------------------------------------------|
D :---------------------------------------------------|
A :---------------------------------------------------|
E :---------------------------------------------------|

E :---------------------------------------------------|
B :---------------------------------------------------|
G :-4-------4-----4-------4-----4-------4-----4-----4-|
D :-4-------4-----4-------4-----4-------4-----4-----4-|
A :-2-------2-----2-------2-----2-------2-----2-----2-|
E :---------------------------------------------------|

break:

E :----------------|----------------|----------------|----------------|
B :----------------|----------------|----------------|----------------|
G :----------------|--------2-2-2-2-|4-4-4-4-4-4-4-4-|--4-4---4-4-4-4-|
D :2---2-2-0-2-0-2-|--2-2-2-0-0-0-0-|4-4-4-4-4-4-4-4-|--4-4---4-4-4-4-|
A :2---2-2-0-2-0-2-|--2-2-2-0-0-0-0-|2-2-2-2-2-2-2-2-|--2-2---2-2-2-2-|
E :0---0-0-0-0-0-0-|--0-0-0---------|----------------|----------------|

  Forever in my heart...
  I wake up night...

2nd Solo:
             ____3__
             |   |  |
E :22b---r22-19-22-19----19----------|----------------------------------|
B :-------------------22----22b--22b-|--r22-20-19-20-17-19-15-15-17-----|
G :----------------------------------|----------------------------------|
D :----------------------------------|----------------------------------|
A :----------------------------------|----------------------------------|
E :----------------------------------|----------------------------------|

E :----------------------------------|----------------------------------|
B :----------------------------------|----------------------------------|
G :-----------0----------------------|2---------------------------------|
D :-2---------0----------------------|0---------------2-----------------|
A :-2---------x----------------------|0---------------2-----------------|
E :-0---------3----------------------|----------------0-----------------|

===========================================================================



                         ___3__   ____5____ ____5___
E :----------------------|--|-|-|-|-|-|-|-|-|-|-|-|-|------12-h15-|
B :12------12------------|--|-|-|-|-7-|-|-|-|-|-|-|-|--/12--------|
G :14b--------14b-14-12-11-12-11|-9---9-7-9-7-|-|-7-9-------------|
D :-----------------------------|-------------7-9-----------------|
A :-----------------------------|---------------------------------|
E :-----------------------------|---------------------------------|

E :-----------------------------|---------------------------------|
B :-----------------------------|---------------------------------|
G :-2-------2-------------------|---------------------------------|
D :-0-------0-------------------|-2---------2---------------------|
A :-0-------0--2---2--2-----2---|-2---------2---------------------|
E :------------0---0--0-----0---|-0---------0---------------------|

=========================================================================

                           ______5_____     ________6______
                           | |   |  |  |   |   |  |  |   | |
E :15-17-p15----15-h17-p5--|-15-h17-p5-|--17-p15--|-17-p15-|-|
B :----------17-----------17-----------17--------17--------17|
G :----------------------------------------------------------|
D :----------------------------------------------------------|
A :----------------------------------------------------------|
E :----------------------------------------------------------|

E :----------------------------------------------------------|
B :----------------------------------------------------------|
G :------------------0---------------------------------------|
D :-2----------------0---------------------------------------|
A :-2----------------x---------------------------------------|
E :-0----------------3---------------------------------------|

===================================================================

    _________6_______   __________6_____
    |   |  |  |   |  |  |   |  |  |   |      |
E :17-p15----17-p15--|-17-p15----17-17b-----17b-|
B :-------17--------17--------17----------------|
G :---------------------------------------------|
D :---------------------------------------------|
A :---------------------------------------------|
E :---------------------------------------------|

E :---------------------------------------------|
B :---------------------------------------------|
G :---------------------------------------------|
D :-7--------------------------9----------------|
A :-5--------------------------7----------------|
E :---------------------------------------------|

==================================================================

       ____3___
      |    |   |
E :(17b)-r17-15-14-h15-14-p12-14-p12-12--|(12)---------------|
B :----------------------------------15b-|(15)---------------|
G :--------------------------------------|-------------------|
D :--------------------------------------|-------------------|
A :--------------------------------------|-------------------|
E :--------------------------------------|-------------------|

E :--------------------------------------|-------------------|
B :--------------------------------------|-------------------|
G :-----------------------------------2--|(-2)---------------|
D :7-7-7------7--7------7------7------0--|(-0)---------------|
A :5-5-5------5--5------5------5------0--|(-0)---------------|
E :--------------------------------------|-------------------|

E :---7--7-----7-h-8-p7--7-----5------|
B :---8--8-----------------------8----|
G :-------------------------7-------7-|
D :-----------------------------------|
A :-----------------------------------|
E :-----------------------------------|

E :-----------------------------------|
B :---3--3--3--3---3-----3--3--3-3----|
G :0--0--0--0--0---0-----0--0--0-0--0-|
D :0----------------------------------|
A :-----------------------------------|
E :-----------------------------------|

E :--15-15-15-----15----15-15---------|
B :-----------15--------------15---15-|
G :-----------------------------------|
D :-----------------------------------|
A :-----------------------------------|
E :-----------------------------------|

=========================================================================

E :---7--7-----7--8-----8--7-----8----|
B :---8--8-----8--8-----8--8-----8--8-|
G :-----------------------------------|
D :-----------------------------------|
A :-----------------------------------|
E :-----------------------------------|

E :-----------------------------------|
B :---3--3--3--3----------------------|
G :---0--0--0--0-----0--0--0-----0--0-|
D :3-----------------0--0--2-----0--0-|
A :---------------3--------------3----|
E :-----------------------------------|

E :--13-13-13-13-15-15-15-15-15-------|
B :-----------------------------15-15-|
G :-----------------------------------|
D :-----------------------------------|
A :-----------------------------------|
E :-----------------------------------|

===========================================================================

E :7--7----7-h-8-p-7--7--5--------------|---7--7-----------------------|
B :8--8---------------------8-----------|---8--8-----------------------|
G :----------------------------7--------|------------------------------|
D :-------------------------------------|------------------------------|
A :-------------------------------------|------------------------------|
E :-------------------------------------|------------------------------|

E :-------------------------------------|------------------------------|
B :---3--3-----3---3--3--3--3--3--3--3-3|---3--3--3--3-----------------|
G :0--0--0-----0---0--0--0--0--0--0--0-0|---0--0--0--0-----------------|
D :0------------------------------------|3-------------(0)-----(0)-----|
A :-------------------------------------|------------3-----(3)-----(3)-|
E :-------------------------------------|------------------------------|

E :--15-15----15--15-15-15-15-15-15-15--|--13-13-13-13-----------------|
B :-------------------------------------|------------------------------|
G :-------------------------------------|------------------------------|
D :-------------------------------------|------------------------------|
A :-------------------------------------|------------------------------|
E :-------------------------------------|------------------------------|

  Chorus:

E :| 3---------------|1---------------- |
B :| 3---------------|1---------------- |
G :|.0---------------|2------5---------.|
D :|.0---------------|3------5---------.|
A :| 2---------------|3------3--------- |
E :| 3---------------|1---------------- |

(repeat till the end and fade)


For questions, comments & corrections please contact Hellion
to npashkin@com.mels.ru


Share "Forever Free" by Wasp


TOP 10 TABS

FRESH NEW TABS

ALL ARTISTS
artist wiki

mp3bear.com
song lyrics / contact us / privacy policy / tabspace toolbar
Copyright 2004 - 2014 TabSpace.com - All Rights Reserved.
song: forever free guitar tabs by wasp

0.012