:: Guitar & Bass Tabs Make Home Page
A B C D E F G H I J K L M N O P Q R S T U V W X Y Z #

  for    

On TABSPACE
Info About This Tab
Artist: Evanescence
Tab Type: Guitar
Difficulty: intermediate
Rate This Tab!
-------------------------------------------------------------------------------
			     Forever You - Evanescence
-------------------------------------------------------------------------------
Tabbed by: Blaine	
Email: wbthornton88@yahoo.com

Tuning: EADGBe

e|----------------------------------------|   
B|----------------------------------------|  
G|----------------------------------------| 3x 
D|----------------------------------------|   
A|--x-x--6/7-6/7--x-x--6/7-6/7--x-x--6/7--| 
E|--x-x--4/5-4/5--x-x--4/5-4/5--x-x--4/5--|    

e|-------------------------------|
B|-------------------------------|
G|---------------------6777-776--| 
D|---------------------xxxx-xxx--|
A|--x-x--6/7-6/7--x-x--4555-554--|
E|--x-x--4/5-4/5--x-x------------|



e|------------------------------------------|
B|------------------------------------------|
G|--6-------6-------------------------------|
D|--6-------6-------------------------------|
A|--4--x-x--4--x-x--4-2---2-----7-----------|
E|--4--x-x--4--x-x------5---5-4-5-----------|
                                              2x
e|------------------------------------------|
B|------------------------------------------|
G|--6-------6----------------------------7--|
D|--6-------6----------------------------x--|
A|--4--x-x--4--x-x--4-2---2-----7--5--6--5--|
E|--4--x-x--4--x-x------5---5-4-5--3--4-----|

e|-------------|
B|-------------|
G|--6-------6--|
D|--6-------6--|
A|--4--x-x--4--|
E|--4--x-x--4--|



e|----------------------------------------|   
B|----------------------------------------|  
G|----------------------------------------| 3x 
D|----------------------------------------|   
A|--x-x--6/7-6/7--x-x--6/7-6/7--x-x--6/7--| 
E|--x-x--4/5-4/5--x-x--4/5-4/5--x-x--4/5--|    

e|-------------------------------|
B|-------------------------------|
G|---------------------6777-776--| 
D|---------------------xxxx-xxx--|
A|--x-x--6/7-6/7--x-x--4555-554--|
E|--x-x--4/5-4/5--x-x------------|

Play 2x


e|------------------------------------------|
B|------------------------------------------|
G|--6-------6-------------------------------|
D|--6-------6-------------------------------|
A|--4--x-x--4--x-x--4-2---2-----7-----------|
E|--4--x-x--4--x-x------5---5-4-5-----------|
                                              4x
e|------------------------------------------|
B|------------------------------------------|
G|--6-------6----------------------------7--|
D|--6-------6----------------------------x--|
A|--4--x-x--4--x-x--4-2---2-----7--5--6--5--|
E|--4--x-x--4--x-x------5---5-4-5--3--4-----|

The below Part is Played quietly in the background

e|-----------------------------------|
B|-----------------------------------|
G|--6-------6------------------------|
D|--6-------6------------------------| 
A|--4--x-x--4--x-x--4-------2--------|  
E|--4--x-x--4--x-x----7-5-4---5-4-2--|   
                                          
e|-----------------------------------|     
B|-----------------------------------|       
G|-----------------------------------|       
D|-----------------------------------|
A|--7--x-x--7--x-x--4-------2--------|
E|--5--x-x--5--x-x----7-5-4---5-4-2--|
                                             
e|-----------------------------------|
B|-----------------------------------|
G|--6-------6------------------------|
D|--6-------6------------------------|
A|--4--x-x--4--x-x--4-------2--------|     
E|--4--x-x--4--x-x----7-5-4---5-4-2--|    
                                         
Guitar Volume comes back to normal

e|------------------------------|       
B|------------------------------|      
G|------------------------------|     
D|------------------------------|
A|--2h444--4h666--5h777--7h999--|
E|--2--22--4--44--5--55--7--77--|


e|-----------------------------------|
B|-----------------------------------|
G|--6-------6------------------------|
D|--6-------6------------------------| \
A|--4--x-x--4--x-x--4-------2--------|  \
E|--4--x-x--4--x-x----7-5-4---5-4-2--|   \
                                          \
e|-----------------------------------|     \
B|-----------------------------------|      \ 
G|-----------------------------------|       \
D|-----------------------------------|
A|--7--x-x--7--x-x--4-------2--------|
E|--5--x-x--5--x-x----7-5-4---5-4-2--|
                                             2x
e|-----------------------------------|
B|-----------------------------------|
G|--6-------6------------------------|
D|--6-------6------------------------|
A|--4--x-x--4--x-x--4-------2--------|     /
E|--4--x-x--4--x-x----7-5-4---5-4-2--|    /
                                         /
e|------------------------------|       /
B|------------------------------|      /
G|------------------------------|     /
D|------------------------------|
A|--2h444--4h666--5h777--7h999--|
E|--2--22--4--44--5--55--7--77--|


e|------------------------------------------|
B|------------------------------------------|
G|--6-------6-------------------------------|
D|--6-------6-------------------------------|
A|--4--x-x--4--x-x--4-2---2-----7-----------|
E|--4--x-x--4--x-x------5---5-4-5-----------|
                                              4x
e|------------------------------------------|
B|------------------------------------------|
G|--6-------6----------------------------7--|
D|--6-------6----------------------------x--|
A|--4--x-x--4--x-x--4-2---2-----7--5--6--5--|
E|--4--x-x--4--x-x------5---5-4-5--3--4-----|

e|-------------|
B|-------------|
G|--6-------6--|
D|--6-------6--|
A|--4--x-x--4--|
E|--4--x-x--4--|





************************************

| /   slide up
| \   slide down
| h   hammer-on
| p   pull-off
| ~   vibrato
| +   harmonic
| x   Mute note
| b   Bend
| pb  Pre-bend
| br  Bend release
| pbr Pre-bend release
| brb Bend release bend

************************************




Share "Forever You" by Evanescence


TOP 10 TABS

FRESH NEW TABS

ALL ARTISTS
artist wiki

mp3bear.com
song lyrics / contact us / privacy policy / tabspace toolbar
Copyright 2004 - 2014 TabSpace.com - All Rights Reserved.
song: forever you guitar tabs by evanescence

0.012