:: Guitar & Bass Tabs Make Home Page
A B C D E F G H I J K L M N O P Q R S T U V W X Y Z #

  for    

On TABSPACE
Info About This Tab
Artist: Tokio Hotel
Tab Type: Guitar
Difficulty: novice
Rate This Tab!
|--------------------------------------------|
|--------------------------------------------|
|--------------------------------------------|
|-4--4-11-11-11-6-6-6-6-6-6-6-6--------------|
|-4--4-11-11-11-6-6-6-6-6-6-6-6--------------|
|-2--2-9--9--9--4-4-4-4-4-4-4-4--------------|

|--------------------------------------------|
|--------------------------------------------|
|--------------------------------------------|
|-4--4-11-11-11-6----------------------------|
|-4--4-11-11-11-6----------------------------|
|-2--2-9--9--9--4----------------------------|

Intro of frei im freien fall
If you want this music  in-musiik@hotmail.fr ( i'm french :p )
say me if it's wrong :s


Share "Frei Im Freien Fall Intro" by Tokio Hotel


TOP 10 TABS

FRESH NEW TABS

ALL ARTISTS
artist wiki

mp3bear.com
song lyrics / contact us / privacy policy / tabspace toolbar
Copyright 2004 - 2014 TabSpace.com - All Rights Reserved.
song: frei im freien fall intro guitar tabs by tokio hotel

0.007