:: Guitar & Bass Tabs Make Home Page
A B C D E F G H I J K L M N O P Q R S T U V W X Y Z #

  for    

On TABSPACE
Info About This Tab
Artist: 30 Seconds To Mars
Tab Type: Guitar
Difficulty: novice
Tuning: Drop D
Rate This Tab!
-------------------------------------------------------------------------------

-------------------------------------------------------------------------------
Band:30 Seconds To Mars

Song:From Yesterday

Tabbed by:X6heretic6bob6x

Email:X6heretic6bob6x@yahoo.com

Tuning:Eb,Ab,Db,Gb,Bb,Eb

intro piano/fade in guitar (0:18)
Eb|--------------------------------------------------------------------------|
Bb|--p-----------------------------------------------------------------------|
Gb|--i-----------------------------------------------------------------------|
Db|--a--then------9----9----9----9---9----9----9----9----9----9--------------|
Ab|--n---------777--777--777--777-777--666--666--666--666--666---------------|
Eb|--o-------------repeat until chorus comes in------------------------------|

Chorus (1:01) 2x
Eb|---------------------------------------------------------------------------|
Bb|---------------------------------------------------------------------------|
Gb|----------------------------------------------------9999999999999999-------|
Db|-9999999999999999-4444444444444444-6666666666666666-9999999999999999-------|
Ab|-9999999999999999-4444444444444444-6666666666666666-7777777777777777-------|
Eb|-7777777777777777-2222222222222222-4444444444444444------------------------|

Verse (1:31) 2x
Eb|---------------------------------------------------------------------------|
Bb|---------------------------------------------------------------------------|
Gb|---------------------------------------------------------------------------|
Db|----9----9----9----9----9----9----9----9----9----9-------------------------|
Ab|-777--777--777--777--777--666--666--666--666--666--------------------------|
Eb|---------------------------------------------------------------------------|

After Verse (1:45) 2x
Eb|---------------------------------------------------------------------------|
Bb|---------------------------------------------------------------------------|
Gb|---------------------------------------------------------------------------|
Db|---------------------------------------------------------------------------|
Ab|-777777-77777~-666666-66666~-----------------------------------------------|
Eb|---------------------------------------------------------------------------|
    ...... ....   ...... ....

Chorus (2:00)
Eb|---------------------------------------------------------------------------|
Bb|---------------------------------------------------------------------------|
Gb|----------------------------------------------------9999999999999999-------|
Db|-9999999999999999-4444444444444444-6666666666666666-9999999999999999-------|
Ab|-9999999999999999-4444444444444444-6666666666666666-7777777777777777-------|
Eb|-7777777777777777-2222222222222222-4444444444444444------------------------|

Bridge (2:28)
Eb|---------------------------------------------------------------------------|
Bb|---------------------------------------------------------------------------|
Gb|-11111111111111111111111111111111------------------------------------------|
Db|--x-x-x-x-x-x-x-x-x-x-x-x-x-x-x-x------------------------------------------|
Ab|--9-9-9-9-9-9-9-9-9-9-9-9-9-9-9-9------------------------------------------|
Eb|---------------------------------------------------------------------------|


Eb|------------------------------------------------------------|
Bb|------------------------------------------------------------|
Gb|-----88-9-11--8888-9-11------99--88-------------------------|
Db|-99--xx-x-x---xxxx-x-x---99--xx--xx-------play-three-times--|
Ab|-99--66-7-9---6666-7-9---99--77--66-------------------------|
Eb|-77----------------------77---------------------------------|

Eb|----------------------------------------------------|
Bb|----------------------------------------------------|
Gb|-----------88-9-11---1111111111111--13-13-13-13-13--|
Db|-then--99--xx-x-x----x-x-x-x-x-x-x--x--x--x--x--x---|
Ab|-------99--66-7-9----9-9-9-9-9-9-9--11-11-11-11-11--|
Eb|-------77-------------------------------------------|

Chorus (3:00) 4x
Eb|----------------------------------------------------------------------|
Bb|----------------------------------------------------------------------|
Gb|----------------------------------------------------9999999999999999--|
Db|-9999999999999999-4444444444444444-6666666666666666-9999999999999999--|
Ab|-9999999999999999-4444444444444444-6666666666666666-7777777777777777--|
Eb|-7777777777777777-2222222222222222-4444444444444444-------------------|

Eb|-after------------------------------------|
Bb|---u--------------------------------------|
Gb|--play---1111111111111111111111111111111--|
Db|-chorus--1111111111111111111111111111111--|
Ab|---4x----9-9-9-9-9-9-9-9-9-9-9-9-9-9-9-9--|
Eb|------------------------------------------|

Outro (4:00)
e|-----------------------------|
B|-----------------------------|
G|-----88-9-11--8888-9-11------|
D|-77--xx-x-x---xxxx-x-x---99--|
A|-77--66-7-9---6666-7-9---99--|
E|-99----------------------77--|

  ~|let ring
  .|palm mute

thanks for looking at my first tab. let me know if there's anything wrong. im not a 
just never submitted tabs before. enjoy!


Share "From Yesterday" by 30 Seconds To Mars


TOP 10 TABS

FRESH NEW TABS

ALL ARTISTS
artist wiki

mp3bear.com
song lyrics / contact us / privacy policy / tabspace toolbar
Copyright 2004 - 2014 TabSpace.com - All Rights Reserved.
song: from yesterday guitar tabs by 30 seconds to mars

0.013