:: Guitar & Bass Tabs Make Home Page
A B C D E F G H I J K L M N O P Q R S T U V W X Y Z #

  for    

On TABSPACE
Info About This Tab
Artist: Unheilig
Tab Type: Guitar
Difficulty: novice
Tuning: Drop C
Rate This Tab!
Unheilig-Fuer Immer G tab tuning DRop-C-G-C-F-A-D

keyboard part transcribded for guitar 0.17 sec.
D---------------------------------------------------|
A---------------------------------------------------|
F--11----11----13----13----11----11----10----10-----|
C-----13----13----15----15----13----13----11----13--|
G---------------------------------------------------|
C---------------------------------------------------| x4

chorus 1
D--------------------------------------------------------------------------|
A--------------------------------------------------------------------------|
F--------------------------------------------------------------------------|
C--1-1-1-1-1-1-1-1-4-4-4-4-4-4-4-4-11-11-11-11-11-11-11-11-6-6-6-6-6-6-6-6-|
G--1-1-1-1-1-1-1-1-4-4-4-4-4-4-4-4-11-11-11-11-11-11-11-11-6-6-6-6-6-6-6-6-|
C--1-1-1-1-1-1-1-1-4-4-4-4-4-4-4-4-11-11-11-11-11-11-11-11-6-6-6-6-6-6-6-6-|

D--------------------------------------------------------------------------|
A--------------------------------------------------------------------------|
F--------------------------------------------------------------------------|
C--1-1-1-1-1-1-1-1-4-4-4-4-4-4-4-4-11-11-11-11-11-11-11-11-6-6-6-6-6-6-6-6-|
G--1-1-1-1-1-1-1-1-4-4-4-4-4-4-4-4-11-11-11-11-11-11-11-11-6-6-6-6-6-6-6-6-|
C--1-1-1-1-1-1-1-1-4-4-4-4-4-4-4-4-11-11-11-11-11-11-11-11-6-6-6-6-6-6-6-6-|
                                                        PM .   . .   .

pauze

chorus 2
D--------------------------------------------------------------------------|
A--------------------------------------------------------------------------|
F--------------------------------------------------------------------------|
C--1-1-1-1-1-1-1-1-4-4-4-4-4-4-4-4-11-11-11-11-11-11-11-11-6-6-6-6-6-6-6-6-|
G--1-1-1-1-1-1-1-1-4-4-4-4-4-4-4-4-11-11-11-11-11-11-11-11-6-6-6-6-6-6-6-6-|
C--1-1-1-1-1-1-1-1-4-4-4-4-4-4-4-4-11-11-11-11-11-11-11-11-6-6-6-6-6-6-6-6-|

D--------------------------------------------------------------------------|
A--------------------------------------------------------------------------|
F--------------------------------------------------------------------------|
C--1-1-1-1-1-1-1-1-4-4-4-4-4-4-4-4-11-11-11-11-11-11-11-11-6-6-6-6-6-6-6-6-|
G--1-1-1-1-1-1-1-1-4-4-4-4-4-4-4-4-11-11-11-11-11-11-11-11-6-6-6-6-6-6-6-6-|
C--1-1-1-1-1-1-1-1-4-4-4-4-4-4-4-4-11-11-11-11-11-11-11-11-6-6-6-6-6-6-6-6-|

D---------------------------------------------------------------------|
A---------------------------------------------------------------------|
F---------------------------------------------------------------------|
C--9-9-9-9-9-9-9-9-11-11-11-11-11-11-11-11-11-14-14-14-14-14-14-14-14-|
G--9-9-9-9-9-9-9-9-11-11-11-11-11-11-11-11-11-14-14-14-14-14-14-14-14-|
C--9-9-9-9-9-9-9-9-11-11-11-11-11-11-11-11-11-14-14-14-14-14-14-14-14-|

D-------------------|
A-------------------|
F-------------------|
C--8-8-8-8-8-8-8-8--|
G--8-8-8-8-8-8-8-8--|
C--8-8-8-8-8-8-8-8--|

D-------------------------------------------------------------|
A-------------------------------------------------------------|
F-------------------------------------------------------------|
C--9-9-9-9-9-9-9-9-11-11-11-11-11-11-11-11-11-8-8-8-8-8-8-8-8-|
G--9-9-9-9-9-9-9-9-11-11-11-11-11-11-11-11-11-8-8-8-8-8-8-8-8-|
C--9-9-9-9-9-9-9-9-11-11-11-11-11-11-11-11-11-8-8-8-8-8-8-8-8-|

D-------------------|
A-------------------|
F-------------------|
C--8-8-8-8-8-8-8-8--|
G--8-8-8-8-8-8-8-8--|
C--8-8-8-8-8-8-8-8--|
PM .   . .   .

keyboard part transcribded for guitar 1.55 min.
D---------------------------------------------------|
A---------------------------------------------------|
F--11----11----13----13----11----11----10----10-----|
C-----13----13----15----15----13----13----11----13--|
G---------------------------------------------------|
C---------------------------------------------------| x4

chorus 3
D--------------------------------------------------------------------------|
A--------------------------------------------------------------------------|
F--------------------------------------------------------------------------|
C--1-1-1-1-1-1-1-1-4-4-4-4-4-4-4-4-11-11-11-11-11-11-11-11-6-6-6-6-6-6-6-6-|
G--1-1-1-1-1-1-1-1-4-4-4-4-4-4-4-4-11-11-11-11-11-11-11-11-6-6-6-6-6-6-6-6-|
C--1-1-1-1-1-1-1-1-4-4-4-4-4-4-4-4-11-11-11-11-11-11-11-11-6-6-6-6-6-6-6-6-|

D--------------------------------------------------------------------------|
A--------------------------------------------------------------------------|
F--------------------------------------------------------------------------|
C--1-1-1-1-1-1-1-1-4-4-4-4-4-4-4-4-11-11-11-11-11-11-11-11-6-6-6-6-6-6-6-6-|
G--1-1-1-1-1-1-1-1-4-4-4-4-4-4-4-4-11-11-11-11-11-11-11-11-6-6-6-6-6-6-6-6-|
C--1-1-1-1-1-1-1-1-4-4-4-4-4-4-4-4-11-11-11-11-11-11-11-11-6-6-6-6-6-6-6-6-|

D--------------------------------------------------------------------------|
A--------------------------------------------------------------------------|
F--------------------------------------------------------------------------|
C--1-1-1-1-1-1-1-1-4-4-4-4-4-4-4-4-11-11-11-11-11-11-11-11-6-6-6-6-6-6-6-6-|
G--1-1-1-1-1-1-1-1-4-4-4-4-4-4-4-4-11-11-11-11-11-11-11-11-6-6-6-6-6-6-6-6-|
C--1-1-1-1-1-1-1-1-4-4-4-4-4-4-4-4-11-11-11-11-11-11-11-11-6-6-6-6-6-6-6-6-|

D--------------------------------------------------------------------------|
A--------------------------------------------------------------------------|
F--------------------------------------------------------------------------|
C--1-1-1-1-1-1-1-1-4-4-4-4-4-4-4-4-11-11-11-11-11-11-11-11-6-6-6-6-6-6-6-6-|
G--1-1-1-1-1-1-1-1-4-4-4-4-4-4-4-4-11-11-11-11-11-11-11-11-6-6-6-6-6-6-6-6-|
C--1-1-1-1-1-1-1-1-4-4-4-4-4-4-4-4-11-11-11-11-11-11-11-11-6-6-6-6-6-6-6-6-|

D---------------------------------------------------------------------|
A---------------------------------------------------------------------|
F---------------------------------------------------------------------|
C--9-9-9-9-9-9-9-9-11-11-11-11-11-11-11-11-11-14-14-14-14-14-14-14-14-|
G--9-9-9-9-9-9-9-9-11-11-11-11-11-11-11-11-11-14-14-14-14-14-14-14-14-|
C--9-9-9-9-9-9-9-9-11-11-11-11-11-11-11-11-11-14-14-14-14-14-14-14-14-|

D-------------------|
A-------------------|
F-------------------|
C--8-8-8-8-8-8-8-8--|
G--8-8-8-8-8-8-8-8--|
C--8-8-8-8-8-8-8-8--|

D-------------------------------------------------------------|
A-------------------------------------------------------------|
F-------------------------------------------------------------|
C--9-9-9-9-9-9-9-9-11-11-11-11-11-11-11-11-11-8-8-8-8-8-8-8-8-|
G--9-9-9-9-9-9-9-9-11-11-11-11-11-11-11-11-11-8-8-8-8-8-8-8-8-|
C--9-9-9-9-9-9-9-9-11-11-11-11-11-11-11-11-11-8-8-8-8-8-8-8-8-|

D-----------------|
A-----------------|
F-----------------|
C--8-8-8-8-8-8-8--|
G--8-8-8-8-8-8-8--|
C--8-8-8-8-8-8-8--|
PM .   . .   .

keyboard part transcribded for guitar 3.05 min.
D---------------------------------------------------|
A---------------------------------------------------|
F--11----11----13----13----11----11----10----10-----|
C-----13----13----15----15----13----13----11----13--|
G---------------------------------------------------|
C---------------------------------------------------| x2


Share "Fuer Immer" by Unheilig


TOP 10 TABS

FRESH NEW TABS

ALL ARTISTS
artist wiki

mp3bear.com
song lyrics / contact us / privacy policy / tabspace toolbar
Copyright 2004 - 2014 TabSpace.com - All Rights Reserved.
song: fuer immer guitar tabs by unheilig

0.017