:: Guitar & Bass Tabs Make Home Page
A B C D E F G H I J K L M N O P Q R S T U V W X Y Z #

  for    

On TABSPACE
Info About This Tab
Artist: Misc Television
Tab Type: Guitar
Rate This Tab!
-------------------------------------------------------------------------------
		         Theme of Gemini - Kikaider
-------------------------------------------------------------------------------
Tabbed by:Xaxu
Tuning:Standard

Originally by Toonmi2002
Renamed and reformatted.
The video for timing is here = http://www.youtube.com/watch?v=3MfVo6h0n0Y


  0:12 - 0:24
e|----11--10--11------11--10--8-------------------11--10--11----|
B|--8------------8--8-----------11--9--4--6--8--8------------8--|
G|--------------------------------------------------------------|
D|--------------------------------------------------------------|
A|--------------------------------------------------------------|
E|--------------------------------------------------------------|

  0:27 - 0:37
e|----11--10--8----------------------------------6---------6----|
B|--8-----------11--9--11--13--8--8--8h9-8--6--4---6--6--4---6--|
G|--------------------------------------------------------------|
D|--------------------------------------------------------------|
A|--------------------------------------------------------------|
E|--------------------------------------------------------------|

  0:39 - 0:49
e|--3h4--3--3h4--6--8--8--11--9------10h11-9-----------------|
B|------------------------------9--6---------9--6--7--9--11--|
G|-----------------------------------------------------------|
D|-----------------------------------------------------------|
A|-----------------------------------------------------------|
E|-----------------------------------------------------------|

  0:50 - 1:06
e|--------------------11--10--11------11--10--8-----------------|
B|--11--13--11--10--8------------8--8-----------11--9--4--6--8--|
G|--------------------------------------------------------------|
D|--------------------------------------------------------------|
A|--------------------------------------------------------------|
E|--------------------------------------------------------------|

  1:07 - 1:19
e|----11--10--11------11--10--8---------------------11--10--11----|
B|--8------------8--8-----------11--9--11--13--8--8------------8--|
G|----------------------------------------------------------------|
D|----------------------------------------------------------------|
A|----------------------------------------------------------------|
E|----------------------------------------------------------------|

  1:22 - 1:27
e|----13--11--8--9--9--10h11--13--|
B|--9-----------------------------|
G|--------------------------------|
D|--------------------------------|
A|--------------------------------|
E|--------------------------------|

Repeat till infinity.
Any questions or comments go to Xaxu at www.Ultimate-Guitar.com


| /  slide up
| \  slide down
| h  hammer-on
| p  pull-off
| ~  vibrato
| +  harmonic
| x  Mute note
===============================================================================


Share "Gemini Theme" by Misc Television


TOP 10 TABS

FRESH NEW TABS

ALL ARTISTS
artist wiki

mp3bear.com
song lyrics / contact us / privacy policy / tabspace toolbar
Copyright 2004 - 2014 TabSpace.com - All Rights Reserved.
song: gemini theme guitar tabs by misc television

0.011