:: Guitar & Bass Tabs Make Home Page
A B C D E F G H I J K L M N O P Q R S T U V W X Y Z #

  for    

On TABSPACE
Info About This Tab
Artist: Misc Television
Tab Type: Guitar
Rate This Tab!
#----------------------------------PLEASE NOTE---------------------------------#
#This file is the author's own work and represents their interpretation of the #
#song. You may only use this file for private study, scholarship, or research. #
#------------------------------------------------------------------------------##

                                    GET SMART
                             As recorded by TV Theme

Arranged by Breadfan_2
Transcribed by Breadfan_2

          Fm                   Gm                   G#                    G
      1 3 3 1 x x          3 5 5 3 x x          4 6 6 5 x x          3 5 5 4 x x

          F#                   G#5                 B5/Ab                D5/G
      2 4 4 3 x x          4 6 6 x x x          4 2 4 x x x          3 5 7 x x x

      F#maj7sus4              Fm/Ab                E/Ab                 F#/Bb
      2 2 3 x x x          4 3 3 x x x          4 2 2 x x x          6 4 4 x x x

         Am/C                   E               Fm(type 2)               F#m
      8 7 7 x x x          0 2 2 1 x x          1 3 3 1 1 x          2 4 4 2 2 x

          C#m                  Dm                  C/Ab
     9 11 11 9 9 x      10 12 12 10 10 x        x x 6 5 5 3

Gtr I (E A D G B E) - 'Untitled'
Gtr II (E A D G B E) - 'Untitled'

 Get Smart Theme
  Jazz Q=126(8=s8)
                             Fm  GmG#G  F#    Fm   GmG#G  F#
 4/4
  Gtr II
  W          W                Q  e E Q  e E    Q   e E Q   e  E
                              |  | | |  |      |   | | |   |
                              /  / / /  /      /   / / /   /

  Gtr I
  W          H.       e  E    W                Q   H       e  E
|----------|------------13-|-12-------------|-13\------------13--|
|----------|---------13----|----------------|-------------13-----|
|----------|---------------|----------------|--------------------|
|----------|---------------|----------------|--------------------|
|----------|---------------|----------------|--------------------|
|----------|---------------|----------------|--------------------|


  Fm  GmG#G  F#       Fm   GmG#G  F#
   Q  e E Q  e E       Q   e E Q   e  E
   |  | | |  |         |   | | |   |
   /  / / /  /         /   / / /   /

   W                a  Q   H       e  E
|-12-------------|-12h13\------------13-|
|----------------|----13\---------13----|
|----------------|----------------------|
|----------------|----------------------|
|----------------|----------------------|
|----------------|----------------------|


  G#5   B5/Ab D5/G  F#maj7sus4   Fm/Ab E/AF#/Bb       Am/C
   Q     e  E  Q     e    E       Q     e  E  Q        e    E
   |     |  |  |     |            |     |  |  |        |
   /     /  /  /     /            /     /  /  /        /

                     |---3---|                |--3--|  |---3---|
   E  E  E  E  E  E  E  E    E    E  E  E  E  E  E  E  E  E    E
|-12-------11-11-10------------|----------------------------------|
|----13-------------11------14-|-13-------------------------------|
|-------13-------------12------|----13----16-16-15-13---------13--|
|------------------------------|-------15----------------14-------|
|------------------------------|----------------------15----------|
|------------------------------|----------------------------------|


                       Recap
  Fm   GmG#G  F#        Fm GmG#G  F#      Fm  GmG#G  F#    Fm   GmG#G  F#
   Q   e E Q    e  E    Q  e E Q   e  E    Q  e E Q  e E    Q   e E Q   e  E
   |   | | |    |       |  | | |   |       |  | | |  |      |   | | |   |
   /   / / /    /       /  / / /   /       /  / / /  /      /   / / /   /

   ~~~
   H.          +E  E    H      Q   e  E    W                Q   H       e  E
|--------------------||--------------13-|-12-------------|-13\------------13--|
|--------------------||-----------13----|----------------|-------------13-----|
|--------------------||--------------10-|--9-------------|-10\------------10--|
|-15----------(15)Sx-||-----------10----|----------------|-------------10-----|
|--------------------||-----------------|----------------|--------------------|
|--------------------||-----------------|----------------|--------------------|


  Fm  GmG#G  F#       Fm   GmG#G  F#      G#5   B5/Ab D5/G  F#maj7sus4
   Q  e E Q  e E       Q   e E Q   e  E    Q     e  E  Q     e    E
   |  | | |  |         |   | | |   |       |     |  |  |     |
   /  / / /  /         /   / / /   /       /     /  /  /     /

                                                             |---3---|
   W                a  Q   H       E  E    E  E  E  E  E  E  E  E    E
|-12-------------|-17h18\------------13-|-12-------11-11-10------------|
|----------------|-17h18\---------13----|----13-------------11------14-|
|--9-------------|-------------------10-|--9----13--8--8--7----12------|
|----------------|----------------10----|------------------------------|
|----------------|----------------------|------------------------------|
|----------------|----------------------|------------------------------|


  Fm/Ab E/AF#/Bb       Am/C         Fm  GmG#G     F#    Fm  GmG#E
   Q     e  E  Q        e    E       Q  e E   Q   e E   Q   e E e Q.
   |     |  |  |        |            |  | |   |   |     |   | | |
   /     /  /  /        /            /  / /   /   /     /   / / /

               |--3--|  |---3---|
   E  E  E  E  E  E  E  E  E    E    H       +H         H.           e E
|---------------------------------|-------------------|------------------||
|-13------------------------------|-------------------|----------------8-||
|----13----16-16-15-13---------13-|-------------------|--------------7---||
|-10----15----------------14------|-15------(15)------|------------------||
|----11-------14-13-11-15---------|-------------------|------------------||
|-------13------------------------|-13------(13)------|------------------||


 Interlude
  FmF#Fm(type 2)     C#DmC#m
  e E H        Q     e E H         Q
  | | |              | | |
  / / /              / / /

  H      +E  E e E   H      +E  E  e  E
|----------------8-|-7------(7)Sx----13-|
|--------------6---|--------------13----|
|-9------(9)Sx-----|-----------------10-|
|------------------|--------------10----|
|------------------|--------------------|
|------------------|--------------------|


  Fm(tF#Fm(type 2)   C#mDmC#m
   e  E H     Q       e E H          Q
   |  | |             | | |
   /  / /             / / /

   H.         e  E    H       +E  E  e  E
|-12------------20-|-19------(19)Sx-20-----|
|------------18----|-------------------18--|
|--9---------------|-----------------------|
|------------15----|-----------------------|
|------------------|-----------------------|
|------------------|-----------------------|


     Fm  GmG#G  F#    Fm    GmG#G  F#
      Q  e E Q  e E    Q    e E Q   e  E
      |  | | |  |      |    | | |   |
      /  / / /  /      /    / / /   /

   T  T                TP
   a  W                E  E H       E  E
|-22s24-------------|-24s20--------20----|
|-------------------|-----------------18-|
|-------------------|--------------------|
|-------------------|--------------------|
|-------------------|--------------------|
|-22s24-------------|--------------------|


     Fm  GmG#G  F#    Fm    GmG#G  F#
      Q  e E Q  e E    Q    e E Q   e  E
      |  | | |  |      |    | | |   |
      /  / / /  /      /    / / /   /

                       TP
   a  W                E  E H       E  E
|-22s24-------------|-20s15--------20-----|
|-------------------|-----------------18--|
|-------------------|---------------------|
|-------------------|---------------------|
|-------------------|---------------------|
|-------------------|---------------------|


  G#5               B5/Ab D5/G     F#maj7suFm/Ab    E/AF#/Bb       Am/C
   Q                 e  E  Q        e  E    Q        e  E  Q        e    E
   |                 |  |  |        |       |        |  |  |        |
   /                 /  /  /        /       /        /  /  /        /

                                                           |--3--|  |---3---|
   S      +S   S  S  e  E  E  S  S  e  E    E  S  S  e  E  E  e  E  E  e    E
|-22pb24r(22)p20----23-23-22-------21-21-|-20S16----19-19-18-16------------16-||
|----------------21----------23-20-------|-------18-------------18----17------||
|----------------------------------------|-------------------------17---------||
|----------------------------------------|------------------------------------||
|----------------------------------------|------------------------------------||
|----------------------------------------|------------------------------------||


 Outro
  Fm                 C/Ab
   e H..              H.       Q      W          W
   |                  |
   /                  /

                 /7___|
   e H..         a   +H.       E  E   W          W
|--------------|-1---(1)------(1)---|----------|------*|
|-18-----------|--------------------|----------|------*|
|--------------|--------------------|----------|------*|
|-15-----------|--------------------|----------|------*|
|--------------|--------------------|----------|------*|
|--------------|--------------h1--x-|----------|------*|


Duration Legend
---------------
W - whole; H - half; Q - quarter; E - 8th; S - 16th; T - 32nd; X - 64th; a - acciaccatura
+ - note tied to previous; . - note dotted; .. - note double dotted
Uncapitalized letters represent notes that are staccato (1/2 duration)
Irregular groupings are notated above the duration line
Duration letters will always appear directly above the note/fret number it represents the
duration for.  Duration letters with no fret number below them represent rests.  Multi-
bar rests are notated in the form Wxn, where n is the number of bars to rest for.  Low
melody durations appear below the staff

Tablature Legend
----------------
 h   - hammer-on
 p   - pull-off
 b   - bend
 pb  - pre-bend
 r   - bend release (if no number after the r, then release immediately)
 /\  - slide into or out of (from/to "nowhere")
 s   - legato slide
 S   - shift slide
  - natural harmonic
[n]  - artificial harmonic
n(n) - tapped harmonic
 ~   - vibrato
 tr  - trill
 T   - tap
 TP  - trem. picking
 PM  - palm muting
\n/  - tremolo bar dip; n = amount to dip
 \n  - tremolo bar down
 n/  - tremolo bar up
/n\  - tremolo bar inverted dip
 =   - hold bend; also acts as connecting device for hammers/pulls
 <>  - volume swell (louder/softer)
 x   - on rhythm slash represents muted slash
 o   - on rhythm slash represents single note slash

Misc Legend
-----------
 |  - bar
||  - double bar
||o - repeat start
o|| - repeat end
*|  - double bar (ending)
 :  - bar (freetime)
 $  - Segno
 &  - Coda
Tempo markers -  = BPM(8/16=s8/s16), where s8 = swing 8ths, s16 = swing 16ths


***************************************************************************************
* Generated using Power Tab Editor by Brad Larsen - http://powertab.guitarnetwork.org *
***************************************************************************************


Share "Get Smart Theme" by Misc Television


TOP 10 TABS

FRESH NEW TABS

ALL ARTISTS
artist wiki

mp3bear.com
song lyrics / contact us / privacy policy / tabspace toolbar
Copyright 2004 - 2014 TabSpace.com - All Rights Reserved.
song: get smart theme guitar tabs by misc television

0.006