:: Guitar & Bass Tabs Make Home Page
A B C D E F G H I J K L M N O P Q R S T U V W X Y Z #

  for    

On TABSPACE
Info About This Tab
Artist: Evanescence
Tab Type: Guitar
Rate This Tab!
#----------------------------------PLEASE NOTE---------------------------------#
#This file is the author's own work and represents their interpretation of the #
#song. You may only use this file for private study, scholarship, or research. #
#------------------------------------------------------------------------------#

Gtr I (B E A D F# B) - 'Evanescence - Going Under'
  
   4/4
     
           PM| Intro       Intro End Chord
     E E S E S E E Q   8x  W
||---------------------||-------|
||o-------------------o||-12----|
||---------------------||-------|
||---2-2---2-2-2-------||-10----|
||o--2-2---2-2-2------o||-------|
||---0-0---0-0-0-------||--8----|

Prechorus          Chorus                                
  W  W  W  W   Q E. S S S E E E Q E. S S     S E E E Q E. S S S E E S S
|-0--0--0--0--|-----------------------------------------------------------|
|-0--0--0--0--|-----------------------------------------------------------|
|-5--7--2--2--|------------5-5-5-------------------------------5-5-5-5-0--|
|-5--7--2--2--|-2-2--2-2---5-5-5-5-5--5---------7-7-7-2-2--2-2-5-5-5-5-0--|
|-3--5--0--0--|-2-2--2-2---3-3-3-5-5--5---------5-5-5-2-2--2-2-3-3-3-3----|
|-------------|-0-0--0-0-x-------3-3--3-3b3.5p0-5-5-5-0-0--0-0------------|


  Q E. S S S E E S S  E E S E S E E Q
|----------------------------------------|
|----------------------------------------|
|----------------------------------------|
|-5-5--5-5------------2-2---2-2-2--------|
|-5-5--5-5-5-5-5-5----2-2---2-2-2--------|
|-3-3--3-3-2-2-2-2-0--0-0---0-0-0--------|

   Bridge
  E E E E E E E E E E E E E E E S S E E E E E E E E E E E E E E E S S
|----------------------------------------------------------------------|
|----------------------------------------------------------------------|
|-5-5-5-5-5-5-5-5-5-5-5-5-5-5-5----------------------------------------|
|-5-5-5-5-5-5-5-5-5-5-5-5-5-5-5-----2-2-2-2-2-2-2-2-2-2-2-2-2-2-2-2-2--|
|-3-3-3-3-3-3-3-3-3-3-3-3-3-3-3-2-2-2-2-2-2-2-2-2-2-2-2-2-2-2-2-2-2-2--|
|-------------------------------0-0-0-0-0-0-0-0-0-0-0-0-2-0-0-0-0-0-0--|


  E E E E E E E E E E E E E E Q
|----------------------------------|
|----------------------------------|
|-5-5-5-5-5-5-5-5-5-5-5-5-5--------|
|-5-5-5-5-5-5-5-5-5-5-5-5-5--------|
|-3-3-3-3-3-3-3-3-3-3-3-3-3--------|
|----------------------------------|

   Solo!
                                                                                  |--3--|  |----3----|
   S  S  S  S  E  E  Q  S  S  S  S  X  S  S  S  S  S  S  S  S   Q  E S S  H     E  E  E  E  E       E
|--------------------------------------------------------------------0-0-----------------------------|
|------------------------------------------------------------------------15b17-17-17-17-17-15b15.5-15|
|-------------12-12----------------12h14-12----12----------------------------------------------------|
|-------12-14-------14-14-14-14-14----------14----14p12----12-[14]-----------------------------------|
|-12-14-------------------------------------------------14-------------------------------------------|
|----------------------------------------------------------------------------------------------------|


   X  S  S  T  T  S  S  S  S  S  S  S  S  S   E.  S
|------------------------------------------------------|
|-13h15p13-12h13p12----12------------------------------|
|-------------------14----14-12----12----12-[14]-12----|
|-------------------------------14----14---------------|
|------------------------------------------------------|
|------------------------------------------------------|

3rd Prechorus
  W  W  H.  Q  H +E  E Q
|-0--0--0---0--0-(0)--------|
|-0--0--0---0--0-(0)--------|
|-5--7--2---4--5-(5)--------|
|-5--7--2---4--5-(5)--------|
|-3--5--0---2--3-(3)--------|
|---------------------------|


  Q
|------|
|------|
|------|
|-2----|
|-2----|
|-0----|

         Cool Piano Part in Prechorus
   S  S  S  S  S  S  S  S  S  S  S  S  +Q    S  S  S  S  S  S  S  S  S  S  S  S  +E   S  S
|-------12----------------------------------------12------------------------------------------|
|----------------12-------13-------10-(10)-----------------12-------13-------10-(10)----------|
|----12-------12-------12-------12-------------11-------11-------11-------11---------12-11----|
|-10-------10-------10-------10-------------12-------12-------12-------12---------------------|
|---------------------------------------------------------------------------------------------|
|---------------------------------------------------------------------------------------------|


   S  S  S  S  S  S  S  S  S  S  S  S  +Q
|-------12----------------------------------|
|----------------12-------13----------------|
|----------------------------------14-(14)--|
|----14-------14-------14-------14----------|
|-12-------12-------12-------12-------------|
|-------------------------------------------|


   S  S  S  S  S  S  S  S  S  S  S  S  +Q
|-------12------------------------------------|
|----------------12-------13------------------|
|----------------------------------14-(14)----|
|----14-------14-------14-------14------------|
|-12-------12-------12-------12---------------|
|---------------------------------------------|



***************************************************************************************
* Generated using Power Tab Editor by Brad Larsen - http://powertab.guitarnetwork.org *
***************************************************************************************


Share "Going Under" by Evanescence


TOP 10 TABS

FRESH NEW TABS

ALL ARTISTS
artist wiki

mp3bear.com
song lyrics / contact us / privacy policy / tabspace toolbar
Copyright 2004 - 2014 TabSpace.com - All Rights Reserved.
song: going under guitar tabs by evanescence

0.01