:: Guitar & Bass Tabs Make Home Page
A B C D E F G H I J K L M N O P Q R S T U V W X Y Z #

  for    

On TABSPACE
Info About This Tab
Artist: Idlewild
Tab Type: Guitar
Difficulty: intermediate
Rate This Tab!
Artist: iDLEWiLD
Track : Great Times Wasted (B-Side, Live in a Hiding Place)
eMail: squire82@hotmail.co.uk


Standard Tuning
Chords used

      E A D G B e
G5    3 5 5 x x x 
G#5   4 6 6 x x x
A#5   6 8 8 x x x 
C5    x 3 5 5 x x 
D#5   x 6 8 8 x x 
D#    x 6 8 8 8 x


INTRO

Guitar 1

|G5 G#5|A#5  | x2

Guitar 2

x2
e|-10------11-------/13----13--------------|
B|----8--------9--------11------11---------|
G|-------8--------8-----------------13-12--|
D|-----------------------------------------|
A|-----------------------------------------|
E|-----------------------------------------|

VERSES

Both Guitars; repeat as necessary

e|----|
B|-8~-|
G|-8~-|
D|-8~-|
A|-6~-|
E|----|

Piano 

Repeat as necessary	  End of verse
e|----------------------|-------------------|
B|*-8-(8)--9-8---9-8---*|-8-(8)--11-9-8-----|
G|--8-(8)------8-----8--|-8-(8)-------------|
D|----------------------|-------------------|
A|*--------------------*|-------------------|
E|----------------------|-------------------|


BRIDGE

Guitar 1

|G5 G#5|A#5  | x4

Guitar 2;

e|-10------11-------/13----13-------------10------11-------/13----13--------|
B|----8--------9--------11-----11------------8--------9--------11------13V--|
G|-------8--------8---------------13-12---------8--------8------------------|
D|--------------------------------------------------------------------------|
A|--------------------------------------------------------------------------|
E|--------------------------------------------------------------------------|


e|-10------11-------/13----13-------------10------11-------/13----13------------|
B|----8--------9--------11------11-----------8--------9--------11------11-------|
G|-------8--------8----------------13-12--------8--------8----------------13-12-|
D|------------------------------------------------------------------------------|
A|------------------------------------------------------------------------------|
E|------------------------------------------------------------------------------|

CHORUS

Guitar 1

|D#5  |A#5  |C5  |G#5  |

Guitar 2

e|------------------------------------------------------------------|
B|------------------------------------------------------------------|
G|-12-12-12-12/8-8\10-10-10-10/8-8\12-12-12-12/8-8------------------|
D|--x--x--x--x-x-x--x--x--x--x-x-x--x--x--x--x-x-x--6-6-6-6-6-6-6-6-|
A|-10-10-10-10/6-6\-8--8--8--8/6-6\10-10-10-10/6-6--6-6-6-6-6-6-6-6-|
E|--------------------------------------------------4-4-4-4-4-4-4-4-|

Interlude

Both guitars

G|-8-8-8-8-8-8-8-8-8-| Repeat as necessary


End on 

e|----|
B|-8~-|
G|-8~-|
D|-8~-|
A|-6~-|
E|----|

Order

Intro
Verse
Bridge
Verse
Chorus x3
Interlude
Chorus




Share "Great Times Wasted" by Idlewild


TOP 10 TABS

FRESH NEW TABS

ALL ARTISTS
artist wiki

mp3bear.com
song lyrics / contact us / privacy policy / tabspace toolbar
Copyright 2004 - 2014 TabSpace.com - All Rights Reserved.
song: great times wasted guitar tabs by idlewild

0.013