:: Guitar & Bass Tabs Make Home Page
A B C D E F G H I J K L M N O P Q R S T U V W X Y Z #

  for    

On TABSPACE
Info About This Tab
Artist: Jay Brannan
Tab Type: Guitar
Difficulty: novice
Rate This Tab!
Tabbed by:yea
Email:

Tuning:standard

*harmonics

e|---------------------------------------------------------------------------|
B|-9--10---10----10-----5-5---2--3p2h3p2----9--10---10------10---5-----------|
G|---------------------------------------------------------------------------|
D|---------------------------------------------------------------------------|
A|---------------------------------------------------------------------------|
E|-9--10------10--------5------0------------9---10------10-------5---5-5--5-5|

e|-9--10--10-----10---5--5---2---3p2h3p2---9---10--10-----10----------------------|
B|-------------------------------------------------------------12*---7*-----------|
G|-------------------------------------------------------------12*---7*-----------|
D|-------------------------------------------------------------12*---7*-----------|
A|--------------------------------------------------------------------------------|
E|-9--10----10--------5------0-------------9---10-----10--------------------------|

repeat this through song. the chorus is slightly different. mess with it.



Share "Half Boyfriend" by Jay Brannan


TOP 10 TABS

FRESH NEW TABS

ALL ARTISTS
artist wiki

TabSpace.com / contact us / privacy policy / tabspace toolbar
Copyright 2004 - 2020 TabSpace.com - All Rights Reserved.
song: half boyfriend guitar tabs by jay brannan