:: Guitar & Bass Tabs Make Home Page
A B C D E F G H I J K L M N O P Q R S T U V W X Y Z #

  for    

On TABSPACE
Info About This Tab
Artist: Mobile
Tab Type: Bass
Difficulty: intermediate
Rate This Tab!
-------------------------------------------------------------------------------
			     Hands Tied - Mobile
-------------------------------------------------------------------------------

Tabbed By : Yanusun
e-mail: kylemk@jedcor.com

Tuning: Standard

If you listen carefully to the bass part, it has a few grace notes in the chorus. They 
make this tab more confusing if I tried to write them, but they are easy to pick up if 
want them to be played.

Intro
G|----------------------------------------------------------------|
D|----------------------------------------------------------------|
A|----------------------------------------------------------------|
E|44--------------44--------------44--------------11--------------|

G|--------------------------------|
D|--------------------------------|
A|22----------44------------------|
E|----------------44--------------|

Verse
G|----------------------------------------------------------------|
D|----------------------------------------------------------------|
A|--------------------------------2222222222224444----------------|
E|44444444444444441111111111111111----------------4444444444444---|

Chorus
G|----------------------------------------------------------------|
D|----------------------------------------------------------------|
A|2-2-1---2-2-1----------2--------2-2-1---2-2-1----------2--------|
E|-----442-----4424-4-244-4-4-2442-----442-----4424-4-244-4-4-24--|

G|----------------|
D|----------------|
A|-------2--------|
E|4-4-244-4-4-24--|

G|--------------------------------------------------------------------------------|
D|--------------------------------------------------------------------------------|
A|2-2-1---2-2-1----------2--------2-2-1---2-2-1-----------------------------------|
E|-----442-----4424-4-244-4-4-2442-----442-----44244--------------44--------------|

Verse x2
Chorus (without the last three 4s)

It is hard to hear the bass during this next part because of some electronic stuff going 
but I came up with an easier way and a little harder way to play it. They both sound great.

Easy=Verse

Medium
G|---------------------------------4-4-4-4-4-4-6-6------------|
D|-6-6-6-6-6-6-6-6-3-3-3-3-3-3-3-3-----------------6-6-6-6----|
A|--------------------------------2-2-2-2-2-2-4-4-------------|
E|4-4-4-4-4-4-4-4-1-1-1-1-1-1-1-1-----------------4-4-4-4-4---|

G|----------------------------------------------------------------|
D|----------------------------------------------------------------|
A|2-2-1---2-2-1----------2--------2-2-1---2-2-1----------2--------|
E|-----442-----4424-4-244-4-4-2442-----442-----4424-4-244-4-4-2442|

G|------------------------------------------------|
D|------------------------------------------------|
A|------------------------------------------------|
E|4--4----4--4-2-24--4----4--4-2-244----44-2-244|

===============================================================================


Share "Hands Tied" by Mobile


TOP 10 TABS

FRESH NEW TABS

ALL ARTISTS
artist wiki

mp3bear.com
TabSpace.com / contact us / privacy policy / tabspace toolbar
Copyright 2004 - 2016 TabSpace.com - All Rights Reserved.
song: hands tied bass tabs by mobile

0.003