:: Guitar & Bass Tabs Make Home Page
A B C D E F G H I J K L M N O P Q R S T U V W X Y Z #

  for    

On TABSPACE
Info About This Tab
Artist: George Thorogood
Tab Type: Guitar
Difficulty: novice
Tuning: Open G
Rate This Tab!
This is my first tab and it's just the rhythm guitar part, i'll post the rest when 
I figure it out.

   Guitar 1: Open G tuning DGDGBD

Main riff
e----------------------------------------------------------------------------|
B----------------------------------------------------------------------------|
G----------------------------------------------------------------------------|
D---------------0----------3-0---0---------------0---------3-0---0-----------|
A-------------5----------------5---------------5---------------5-------------|
E--0-0-3-0-0-0-----0-0-3-0----------0-0-3-0-0-0-----0-0-3-0------------------|

    open D note rings while playing the rest

on some lines in the verse play this, then play the main riff again with the low E palm muted.
e-----------------|
B-----------------|
G-----------------|
D-----------------|
A-7-7-7-7-7-7-7-7-|
E-5-5-5-5-5-5-5-5-|
 Palm muted

lastly this, palm muted
"thought i was tough, but i aint tough enough
e---------------------------------|
B---------------------------------|
G---------------------------------|
D---------------------------------|
A-7-7-7-7-7-7-7-7-5-5-5-5-5-5-5-5-|
E-5-5-5-5-5-5-5-5-3-3-3-3-3-3-3-3-|

  for the hard stuff
e---------------------|
B---------------------|
G---------------------|
D---------------------|
A---------------------|
E----2B-0----0-2B-0---|

bend the 2nd fret before plucking the note, otherwise you'll sound off.


Share "Hard Stuff" by George Thorogood


TOP 10 TABS

FRESH NEW TABS

ALL ARTISTS
artist wiki

mp3bear.com
song lyrics / contact us / privacy policy / tabspace toolbar
Copyright 2004 - 2014 TabSpace.com - All Rights Reserved.
song: hard stuff guitar tabs by george thorogood

0.017