:: Guitar & Bass Tabs Make Home Page
A B C D E F G H I J K L M N O P Q R S T U V W X Y Z #

  for    

On TABSPACE
Info About This Tab
Artist: Hard-fi
Tab Type: Bass
Rate This Tab!
Intro and Verse:
G---------------------------------||----------------------------------|
D-------------------------0-0-3-0-||--------------------------0-0-----|
A-------1-3-3---1-3-3---3---------||--------1-3-3---1-3-3---1-----1-1-|
E-3-3-3---------------------------||--3-3-3---------------------------|

Then at 0:32
G---------------------------|
D---------------------------|
A-3~~-5-3~~-5-3~~-5-3~~-5~~-|
E---------------------------|

Chorus 0:55
G---------------------------|
D---------------------------|
A-3~~-5-3~~-5-3~~-5-3~~-5~~-|
E---------------------------|

G---------------------------|
D---------------------------|
A-6~~-5-6~~-5-6~~-5-6~~-8~~-|
E---------------------------|

G-------------------------------------|
D-------------------------------------|
A-3-3333-5-3-3333-5-3-3333-5-3-33-555-|
E-------------------------------------|

G------------------------------------|
D------------------------------------|
A-6-6666-5-6-6666-5-6-6666-5-6-66-8~-|
E------------------------------------|

End:
G-----------------------------|
D-------------------2---------|
A--3--33-3-3---3/5----5-2-5-2-|
E-----------------------------|

Tab - Wakes


Share "Hard To Beat" by Hard-fi


TOP 10 TABS

FRESH NEW TABS

ALL ARTISTS
artist wiki

mp3bear.com
song lyrics / contact us / privacy policy / tabspace toolbar
Copyright 2004 - 2014 TabSpace.com - All Rights Reserved.
song: hard to beat bass tabs by hard-fi

0.012