:: Guitar & Bass Tabs Make Home Page
A B C D E F G H I J K L M N O P Q R S T U V W X Y Z #

  for    

On TABSPACE
Info About This Tab
Artist: Evanescence
Tab Type: Guitar
Rate This Tab!
Band: Evanecence
Song: Haunted
Trans. by: Paul Parker
Email: paulparker@mindspring.com (PLEASE DON'T E-MAIL UNLESS YOU REALY REALLY HAVE TO)

85 = BPM

OK, this is my first tab so I dont have the solo, but I know this much is right so...

The stuff under the staff (1 2 3 4) is the timing. If it says: [1  3] then
that's a half note, [1 2] is a quarter note, [1] is a whole note, [1 &] is a
eighth note, and [1 a] is a sixteenth note. If it is confusing you to much then just ignore it.


Harmonics = H
Palm Mute = P.M. .........

Tuning: Drop D - D A D G B E


INTRO - Pipe organ sim. for guitar
e|-----------------------|---------------------------------------------------|
B|-----------------------|---------------------------------------------------|
G|--------4----3---------|------5----4---------------------------------------|
D|---2--------------5--4-|-2--------------5--4-------------------------------|
A|-----------------------|---------------------------------------------------|
D|-----------------------|---------------------------------------------------|
     1    3    1    3  4   1    3    1    3  4
Since it's a simulation it won't be perfect but it sounds cool with a whole lot
of distortion and/or flanger and a wah-wah pedal helps.


INTERLUDISH THING
The little beeping stuff is not that important but I do...
   H  H  H  H
e|-12-12-12-12---------------------------------------------------------------|
B|---------------------------------------------------------------------------|
G|---------------------------------------------------------------------------|
D|---------------------------------------------------------------------------|
A|---------------------------------------------------------------------------|
D|---------------------------------------------------------------------------|
   1  2  3  4
*cut the note of when you hit it so it doesnt ring (listen to the song and
you'll no what I mean)


CHORUS
e|---------------------------------------------------------------------------|
B|---------------------------------------------------------------------------|
G|---------------------------------------------------------------------------|
D|---2---2---XX--XX--0---0---XX--XX--2---2---XX--XX--9---9---5---7-----------|
A|---2---2---XX--XX--0---0---XX--XX--2---2---XX--XX--9---9---5---7-----------|
D|---2---2---XX--XX--0---0---XX--XX--2---2---XX--XX--9---9---5---7-----------|
     1   2   3a  4a  1   2   3a  4a  1   2   3a  4a  1   2   3   4


THING AFTER CHORUS BEFORE SECOND VERSE
   H
e|-12------------------------------------------------------------------------|
B|---------------------------------------------------------------------------|
G|---------------------------------------------------------------------------|
D|---------------------------------------------------------------------------|
A|---------------------------------------------------------------------------|
D|---------------------------------------------------------------------------|
  Let this ring for two measures (two hole notes)


VERSE
P.M. all             H *
e|-------------------12------------------------------------------------------|
B|---------------------------------------------------------------------------|
G|---------------------------------------------------------------------------|
D|---222-222-2-2-------------------------------------------------------------|
A|---222-222-2-2-------------------------------------------------------------|
D|---222-222-2-2-------------------------------------------------------------|
      1   &  2 &     4 
       \ /
       These are triplets (Three beats on one)
*PLAY THE LAST TIME ONLY OF THE VERSE

** Just as a note I want to point out that a lot of Evanescences songs' verses
are variations of this... like they only use an E5 etc.... they still kick @$$
though so know that I was only pointing out the truth.



The order is...

INTRO  - Play through 4 times 
INTERLUDISH THING - 1 time
CHORUS - Play through 2 times
THING AFTER CHORUS BEFORE SECOND VERSE - 1 time
VERSE - Play through 8 times
CHORUS - 6 times (two with words, two with solo, two more with words)
Verse - 1 time (play the harmonic)

-~-~-~-~-~-end of song-~-~-~-~-~-



Sorry about not having the solo, but I don't have that good of an ear yet.
Please don't e-mail me too much
O, and their concert last fall (fall '03) kicked @$$!!!


Share "Haunted" by Evanescence


TOP 10 TABS

FRESH NEW TABS

ALL ARTISTS
artist wiki

mp3bear.com
song lyrics / contact us / privacy policy / tabspace toolbar
Copyright 2004 - 2014 TabSpace.com - All Rights Reserved.
song: haunted guitar tabs by evanescence

0.009