:: Guitar & Bass Tabs Make Home Page
A B C D E F G H I J K L M N O P Q R S T U V W X Y Z #

  for    

On TABSPACE
Info About This Tab
Artist: Jimi Hendrix
Tab Type: Guitar
Rate This Tab!
Song: Hear My Train A Comin Acoustic
Artist: Jimi Hendrix
Tunning: C Standard

 - You can hear the song here: http: www.youtube.com/watch?v=wCQBbgb_Lvo


 
            

 ---9p7-----9p7-----9p7-----9p7-----9p7---9---10---10---10---10---|
 -------8-------8-------8-------8-------8------7----7--7b8----7---|
 -----------------------------------------------------------------|
 -----------------------------------------------------------------|
 -----------------------------------------------------------------|
 -----------------------------------------------------------------|

 ---12---12---12---10---10---10-----------------------------------|
 -------------------9-9--9----9-----------------------------------|
 ----9----9-9--9-9--9-9-------9\7--7h9--7-------------------------|
 ------------------------------------------8\7-5-7-5-------7--5b6-|
 -----------------------------------------------------7--7--------|
 -----------------------------------------------------------------|
 
 -----------------------------------------------------------------|
 -----------------------------------------------------------------|
 ------------------------------------6----------------------------|
 ----------------------------5h7-----5----------------------------|
 --7------7---------5---7------------------------5----------------|
 -----0---0---5--7----------------5-----5--5h7--------3----0---0--|
 
 -----------------------------------------------------0--2--3--4--|
 -----------------------------------------------------0-----------|
 ---------------------------------------------2--2----2--2--3--4--|
 -0h2p0--------2---2-------------0--------0h1----1----1-----------|
 ---------------------------0--2----0--2--------------------------|
 ----------------------0--3---------------------------------------|
 

                
 -----0------------------------------3--0--3p0--3p0------0-----|
 -----0-----------------------------------------------3--------|
 ---------------------1-X--------------------------------------|
 -----------0h2p0-----2-X-----0h2------------------------------|
 --------------------------------------------------------------|
 -0-------3-------0-------3p0------0-----------------------3p0-|
 
        
 ---------0----------0-------------------0----0-----0----------|
 ---------0---3------0---------------0--------------0----------|
 ---------1----------1-/4--4--4-4----------2----0------4-------|
 -0h2-----2----------2---------------2-----2------2--------0h2-|
 ------------------2----5--5--5------------------------5-------|
 -----0---------3--0---------------0---------------------3-----|
 
  
 ----3p0---0-----------------------0-------------X-------------|
 --------3--------------------0----0--3--0-------X---3---------|
 -------------2b3r2p0--1-----------X-------------X-----2b3-2p0-|
 ----------------------2----0h2----2-------------X-------------|
 ----------------------2-----------2-------------X-------------|
 -0--------------------0--3--------0-------------X-------------|

                                      
 ---0----0-0-0-0-0-0--------------------------------------------|
 ---0------3-----3-------0-----------0-0-----0------0-0-------0-|
 -----2/4--2---------4\2-0-0---------1-1-----0------1-----------|
 ----------------------------0h2p0-------------0h2--------X-0---|
 ---------------------------------------------------------X-----|
 -0--------------------------------0-------3-------0----3-X-----|

  
 -------------------------0-----0--3-3-----3---3----------------|
 -------------------------0--0--0--2-2---2---2--2--3---------0--|
 ------2---2--2--3--2--2--2--2--2--2-2-2-2---2-------2b3--2--0--|
 ----------1-----2--1-----1--1--1--2----------------------------|
 --2----------------2-----2--2--2--0----------------------------|
 ---------------------------------------------------------------|

  
 -----0--0---0---0--0-------------------------------2-2---------|
 --------0-0---5-5--3---------------0-------------0-0-0-0-0---0-|
 ----------4-----------4/2p0--------1-------------2-2-2-2---2---|
 ----------------------------2--0-----0--------0h2------1---1---|
 -----------------------------------------0h2p0-----------------|
 -0--------------------------------0---3p0----------------------|
 

 
 ---3-----0---0---------------------0---------------------------|
 ------3--0-------------------------0-----------0-----0----0----|
 ------------2b3r2------------------------------0-----0----0----|
 ----------------------------5--------6--5--5-------------------|
 -------------------0--------------7----7--7--5h7p5-5h7p5-------|
 -0-----------------0---3/7--------0------------------------5-3-|
 
  
 ---0-----0-------------------0----------------X----------------|
 ---0--0--0--0---------0------0------3p0--3p0--X-3--------------|
 ------1--1------------------------------------X---2b3-2b3r2p0--|
 -2----2--2-----------0h2-----2---------------------------------|
 ----------------------------------0----------------------------|
 -0--------------3---------3-------0----------------------------|


 ---0--0------0---3--3--3--2--2-------0-0-----------------------|
 ---0--0--0----------------0---0------0-0----0----0--0---0-0-0--|
 ---------2/4-----3--3--3--2---0h1----1-1---------1--------2-2--|
 -2--------------------------------2--2-2---0h2---2-------------|
 ---------------------------------------------------------------|
 -0--------------------------------0------3-----0------3--------|

 
 
 -----------------2--------2-----------0-----X------------------|
 ---0----2--------0--2-2---2--------------0--X---3--------------|
 ---2-------------2--2-2---2---------2-------X-----2b4-2b3r2p0--|
 ---1---------1--------------------2---------X------------------|
 -2----------------------2----2----0----------------------------|
 -------------------------------3-------------------------------|
 
               
 
 ---0-0----0--0--0--0----------0--------------------------------|
 --------0----5--3---------0---0-------0------------------------|
 -------2/4-----------4\2--0---------1--------------------------|
 -2--------------------------2-------2------0h2p0------2--------|
 ---------------------------------------------------0--0----5h7-|
 -0--------------------------------0------3-------0------5h7----|


 ---------------------------------------------------------------|
 ------------------------------------0--------------------------|
 -------X-------------------------------------------------------|
 -------X---------------0----------2----2-------------0h2-0h2p0-|
 ---7---0---5h7-----5-------0--0---0-------0--0----0h2----------|
 ---------7------7------3---0------0-------------3--------------|

                                            
 ---0--0-----4--4---3---3--3/4------------/4--4--4--3--3--------|
 ---0-----0-----0-0------------------------------------2--3-----|
 --------/4---------3------3/4------------/4--4--4--3--3---2b3--|
 ---------------------------------0h2p0-2-----------------------|
 ---------------------------------------------------------------|
 -0-----------------------------3-------0-----------------------|
 
   
 -----------------------------------0---------------------------|
 --------------3-----------------0--0---------------------------|
 3-r2-0---0--1---2b3r2-0---2b4r2----1---------------------------|
 -------2----------------2-------2----0h2-0h2-0h2-0h2-0---------|
 -------------------------------------------------------2-1-0---|
 ---------------------------------0---------------------------3-|
 
                              
 -----0------------------------------0-----0--------------0-----|
 -----0--0---------------------------0-0-0---0-0----------0-----|
 -----1----/4--4--4--4--4------------1---1---1------------------|
 -0h2-----------------------0h2p0--------------1--0h2p0---------|
 ----------/5-----5--5--5----------------2--------------0-------|
 --0----------------------3--------0-------------3------0---3p0-|
 
   
 
 -----------0---------------------------------------------------|
 ----0------0--0-----------------------3p0-----------0--0-------|
 ----1---1-----------1--b3--0--2---2p0-----2b3-2b3-2p0--0-------|
 --------2---------------------2---2-------------------2--0-----|
 -2------2------------------------------------------------------|
 -0------0-------0-------------0---0------------------------3p0-|

 ------------------0----0--0--------------0---0---------0-------|
 ---------------------------------0-3-3-0---3-------0-0---------|
 ------------2p1-----2/4--4\0-------4-4-1------2b4--4-4r2-0-----|
 -0h2--------2----------------0---2-----------------------------|
 -----/1/2------------------------------------------------------|
 -------------------------------3---------------------------3p0-|

    
 ------------0---0--------0--------0---0--------------0----0----|
 -0--0--3--3-----0----3-0-------0--0---0--------------0-------0-|
 ----------1---1---2b3--0------------1------0----------2b3----1-|
 -2--2-------------------------0h2---2--------0h2p0----------2--|
 ---------------------------------------1h2--------0h2----------|
 ----------------------------3----0-----------------------------|
 
    
 ---0--------------------0--------------------------------------|
 ---0-0---------------0--0------0--X----------------------------|
 ---------------------1------------X----------------------------|
 ----------0h2p0--------------0h2--X----------------------------|
 -----------------2----------------0----------------------------|
 -0------3----------0------3-------0----------------------------|
 
   
 ----0-0---0---0--0-----------------0-0------0--0---0-----------|
 ----0-0-0-----3--5-----------------0-0---0--0--3-0-5-----------|
 --------4------------------------------2/4---------------------|
 ---------------------------------------------------------0h2---|
 -0-------------------------------------------------------------|
 -0-------------------------------0-------------------0--3------|
 

 ------------------------------------0-0--------0----X----------|
 ----0----------0--0-----------------0-0---0----0--0-X----------|
 ----1-----------------------------------------------X----------|
 ----2--------------------5--------------------------X--5-------|
 --------2------0------0-----5-7-------------0------------5-7---|
 -0------0--3p0--------------------0-----3----------------------|
 
    
 ----0--/4-4-4-4\3-3-3-3-3-3\2-2-2------0--0------0~~-----------|| 
 ----0-----3-3-3\2-2---2-------0-0--5-------------0~~-----------||
 -----------------------------------2-------------2~~-----------||
 -----------------------------------2-------------X-------------||
 -0---------------------------------0-------------0~~-----------||



Share "Hear My Train A Comin Acoustic" by Jimi Hendrix


TOP 10 TABS

FRESH NEW TABS

ALL ARTISTS
artist wiki

mp3bear.com
song lyrics / contact us / privacy policy / tabspace toolbar
Copyright 2004 - 2014 TabSpace.com - All Rights Reserved.
song: hear my train a comin acoustic guitar tabs by jimi hendrix

0.015