:: Guitar & Bass Tabs Make Home Page
A B C D E F G H I J K L M N O P Q R S T U V W X Y Z #

  for    

On TABSPACE
Info About This Tab
Artist: Evanescence
Tab Type: Guitar
Tuning: Drop D
Rate This Tab!
-----------------------------------------------------------------------
	     Evanescence -  Heart Shaped Box (acoustic)
-----------------------------------------------------------------------
Tabbed by: Alain Cormier
Email: alaincormier666@hotmail.com

Drop D tuning   

  /  Slide
  b  Bend
 (4) Play instead of 0 only the first time
  ~  Let ring

Intro x 1

e||------------------------------------------------------------------------||
B||------------------------------------------------------------------------||
G||-------2-------------------------------2--------------------------------||
D||-----2---2-----3--------0~---0-------2---2-----3-----2/4-4-4-4-----0----||
A||--0----------3---3----0----0---0---0---------3-----------------3-3------||
D||-----------3-------0~----------------------3-----3-0--------------------||

Verse x 4                                              |---1,2,3.---------| 
                                                        
e||------------------------------------------------------------------------||
B||o----------------------------------------------------------------------o||
G||-------2-------------------------------2--------------------------------||
D||-----2---2-----3--------0~---0-------2---2-----3-----2/4-4-4-4-----0(4)-||
A||o--0---------3---3----0----0---0---0---------3-----------------3-3-----o||
D||-----------3-------0~----------------------3-----3-0--------------------||

   |---4.--------------|

e||---------------------||
B||---------------------||
G||---------------------||
D||--2/4-4-4-4-----0----||
A||--0---0-0-0-3-3-0----||
D||--0---0-0-0-0-0-0----||

Chorus x 1                       
                                             
e||-------------------------------------------||
B||-------------------------------------------||
G||------4b(5)-----4b(5)----------------------||
D||--2-2-------3-3---------2/4-4-4-4-----0----||
A||--0-0-------3-3-------------------3-3------||
D||------------3-3-------0--------------------||

e||---------------------------------------||
B||---------------------------------------||
G||------4b(5)-----4b(5)------------------||
D||--2-2-------3-3-------0--0-0--0-0-0----||
A||--0-0-------3-3-------0--0-0--0-0-0----||
D||------------3-3-------0--0-0--0-0-0----||

e||-------------------------------------------||
B||-------------------------------------------||
G||------4b(5)-----4b(5)----------------------||
D||--2-2-------3-3---------2/4-4-4-4-----0----||
A||--0-0-------3-3---------0---0-0-0-3-3-0----||
D||------------3-3-------0-0---0-0-0-0-0-0----||

e||---------------------------------------||
B||---------------------------------------||
G||------4b(5)-----4b(5)------------------||
D||--2-2-------3-3-------0--0-0--0-0-0----||
A||--0-0-------3-3-------0--0-0--0-0-0----||
D||------------3-3-------0--0-0--0-0-0----||

e||-----------------------------------||
B||-----------------------------------||
G||-----------------------------------||
D||--3-3-3-3-3-3-3-3-0--0-0--0-0-0----||
A||--3-3-3-3-3-3-3-3-0--0-0--0-0-0----||
D||--3-3-3-3-3-3-3-3-0--0-0--0-0-0----||

e||---------------------------------------|
B||---------------------------------------|
G||---------------------------------------|
D||--3-3-3-3-3-3-3-3-0-2/4-4-4-4-----0----|
A||--3-3-3-3-3-3-3-3-0-----------3-3------|
D||--3-3-3-3-3-3-3-3-0--------------------|


Verse  x 4
Chorus x 1



Share "Heart Shaped Box Acoustic" by Evanescence


TOP 10 TABS

FRESH NEW TABS

ALL ARTISTS
artist wiki

mp3bear.com
song lyrics / contact us / privacy policy / tabspace toolbar
Copyright 2004 - 2014 TabSpace.com - All Rights Reserved.
song: heart shaped box acoustic guitar tabs by evanescence

0.007